  0
SECTION
  2
HEADER
  9
$ACADVER
  1
AC1015
  9
$ACADMAINTVER
 70
    20
  9
$DWGCODEPAGE
  3
ANSI_932
  9
$INSBASE
 10
0.0
 20
0.0
 30
0.0
  9
$EXTMIN
 10
-803.0632628016814
 20
-1203.364944265625
 30
-0.0015258207003583
  9
$EXTMAX
 10
997.0466004796962
 20
1472.803488570083
 30
0.0000000349246037
  9
$LIMMIN
 10
0.0
 20
0.0
  9
$LIMMAX
 10
0.0
 20
0.0
  9
$ORTHOMODE
 70
     0
  9
$REGENMODE
 70
     1
  9
$FILLMODE
 70
     1
  9
$QTEXTMODE
 70
     0
  9
$MIRRTEXT
 70
     1
  9
$LTSCALE
 40
50.8
  9
$ATTMODE
 70
     1
  9
$TEXTSIZE
 40
0.0
  9
$TRACEWID
 40
1.0
  9
$TEXTSTYLE
  7
STANDARD
  9
$CLAYER
  8
DATA
  9
$CELTYPE
  6
ByLayer
  9
$CECOLOR
 62
   256
  9
$CELTSCALE
 40
1.0
  9
$DISPSILH
 70
     0
  9
$DIMSCALE
 40
1.0
  9
$DIMASZ
 40
0.18
  9
$DIMEXO
 40
0.0625
  9
$DIMDLI
 40
0.38
  9
$DIMRND
 40
0.0
  9
$DIMDLE
 40
0.0
  9
$DIMEXE
 40
0.18
  9
$DIMTP
 40
0.0
  9
$DIMTM
 40
0.0
  9
$DIMTXT
 40
0.18
  9
$DIMCEN
 40
0.09
  9
$DIMTSZ
 40
0.0
  9
$DIMTOL
 70
     0
  9
$DIMLIM
 70
     0
  9
$DIMTIH
 70
     1
  9
$DIMTOH
 70
     1
  9
$DIMSE1
 70
     0
  9
$DIMSE2
 70
     0
  9
$DIMTAD
 70
     0
  9
$DIMZIN
 70
     0
  9
$DIMBLK
  1

  9
$DIMASO
 70
     1
  9
$DIMSHO
 70
     1
  9
$DIMPOST
  1

  9
$DIMAPOST
  1

  9
$DIMALT
 70
     0
  9
$DIMALTD
 70
     2
  9
$DIMALTF
 40
25.4
  9
$DIMLFAC
 40
1.0
  9
$DIMTOFL
 70
     0
  9
$DIMTVP
 40
0.0
  9
$DIMTIX
 70
     0
  9
$DIMSOXD
 70
     0
  9
$DIMSAH
 70
     0
  9
$DIMBLK1
  1

  9
$DIMBLK2
  1

  9
$DIMSTYLE
  2
STANDARD
  9
$DIMCLRD
 70
     0
  9
$DIMCLRE
 70
     0
  9
$DIMCLRT
 70
     0
  9
$DIMTFAC
 40
1.0
  9
$DIMGAP
 40
0.09
  9
$DIMJUST
 70
     0
  9
$DIMSD1
 70
     0
  9
$DIMSD2
 70
     0
  9
$DIMTOLJ
 70
     1
  9
$DIMTZIN
 70
     0
  9
$DIMALTZ
 70
     0
  9
$DIMALTTZ
 70
     0
  9
$DIMUPT
 70
     0
  9
$DIMDEC
 70
     4
  9
$DIMTDEC
 70
     4
  9
$DIMALTU
 70
     2
  9
$DIMALTTD
 70
     2
  9
$DIMTXSTY
  7
STANDARD
  9
$DIMAUNIT
 70
     0
  9
$DIMADEC
 70
     0
  9
$DIMALTRND
 40
0.0
  9
$DIMAZIN
 70
     0
  9
$DIMDSEP
 70
    46
  9
$DIMATFIT
 70
     3
  9
$DIMFRAC
 70
     0
  9
$DIMLDRBLK
  1

  9
$DIMLUNIT
 70
     2
  9
$DIMLWD
 70
    -2
  9
$DIMLWE
 70
    -2
  9
$DIMTMOVE
 70
     0
  9
$LUNITS
 70
     2
  9
$LUPREC
 70
     4
  9
$SKETCHINC
 40
0.1
  9
$FILLETRAD
 40
0.0
  9
$AUNITS
 70
     0
  9
$AUPREC
 70
     0
  9
$MENU
  1
acad
  9
$ELEVATION
 40
0.0
  9
$PELEVATION
 40
0.0
  9
$THICKNESS
 40
0.0
  9
$LIMCHECK
 70
     0
  9
$CHAMFERA
 40
0.0
  9
$CHAMFERB
 40
0.0
  9
$CHAMFERC
 40
0.0
  9
$CHAMFERD
 40
0.0
  9
$SKPOLY
 70
     0
  9
$TDCREATE
 40
2457823.500254630
  9
$TDUCREATE
 40
2457823.125254630
  9
$TDUPDATE
 40
2457823.549189815
  9
$TDUUPDATE
 40
2457823.174189815
  9
$TDINDWG
 40
0.0003240741
  9
$TDUSRTIMER
 40
0.0003240741
  9
$USRTIMER
 70
     1
  9
$ANGBASE
 50
0.0
  9
$ANGDIR
 70
     0
  9
$PDMODE
 70
     1
  9
$PDSIZE
 40
-2.0
  9
$PLINEWID
 40
0.0
  9
$SPLFRAME
 70
     0
  9
$SPLINETYPE
 70
     6
  9
$SPLINESEGS
 70
     8
  9
$HANDSEED
  5
4F0
  9
$SURFTAB1
 70
     6
  9
$SURFTAB2
 70
     6
  9
$SURFTYPE
 70
     6
  9
$SURFU
 70
     6
  9
$SURFV
 70
     6
  9
$UCSBASE
  2

  9
$UCSNAME
  2

  9
$UCSORG
 10
0.0
 20
0.0
 30
0.0
  9
$UCSXDIR
 10
1.0
 20
0.0
 30
0.0
  9
$UCSYDIR
 10
0.0
 20
1.0
 30
0.0
  9
$UCSORTHOREF
  2

  9
$UCSORTHOVIEW
 70
     0
  9
$UCSORGTOP
 10
0.0
 20
0.0
 30
0.0
  9
$UCSORGBOTTOM
 10
0.0
 20
0.0
 30
0.0
  9
$UCSORGLEFT
 10
0.0
 20
0.0
 30
0.0
  9
$UCSORGRIGHT
 10
0.0
 20
0.0
 30
0.0
  9
$UCSORGFRONT
 10
0.0
 20
0.0
 30
0.0
  9
$UCSORGBACK
 10
0.0
 20
0.0
 30
0.0
  9
$PUCSBASE
  2

  9
$PUCSNAME
  2

  9
$PUCSORG
 10
0.0
 20
0.0
 30
0.0
  9
$PUCSXDIR
 10
1.0
 20
0.0
 30
0.0
  9
$PUCSYDIR
 10
0.0
 20
1.0
 30
0.0
  9
$PUCSORTHOREF
  2

  9
$PUCSORTHOVIEW
 70
     0
  9
$PUCSORGTOP
 10
0.0
 20
0.0
 30
0.0
  9
$PUCSORGBOTTOM
 10
0.0
 20
0.0
 30
0.0
  9
$PUCSORGLEFT
 10
0.0
 20
0.0
 30
0.0
  9
$PUCSORGRIGHT
 10
0.0
 20
0.0
 30
0.0
  9
$PUCSORGFRONT
 10
0.0
 20
0.0
 30
0.0
  9
$PUCSORGBACK
 10
0.0
 20
0.0
 30
0.0
  9
$USERI1
 70
     0
  9
$USERI2
 70
     0
  9
$USERI3
 70
     0
  9
$USERI4
 70
     0
  9
$USERI5
 70
     0
  9
$USERR1
 40
0.0
  9
$USERR2
 40
0.0
  9
$USERR3
 40
0.0
  9
$USERR4
 40
0.0
  9
$USERR5
 40
0.0
  9
$WORLDVIEW
 70
     1
  9
$SHADEDGE
 70
     3
  9
$SHADEDIF
 70
    70
  9
$TILEMODE
 70
     1
  9
$MAXACTVP
 70
    64
  9
$PINSBASE
 10
0.0
 20
0.0
 30
0.0
  9
$PLIMCHECK
 70
     0
  9
$PEXTMIN
 10
1.000000000000000E+20
 20
1.000000000000000E+20
 30
1.000000000000000E+20
  9
$PEXTMAX
 10
-1.000000000000000E+20
 20
-1.000000000000000E+20
 30
-1.000000000000000E+20
  9
$PLIMMIN
 10
0.0
 20
0.0
  9
$PLIMMAX
 10
12.0
 20
9.0
  9
$UNITMODE
 70
     0
  9
$VISRETAIN
 70
     0
  9
$PLINEGEN
 70
     1
  9
$PSLTSCALE
 70
     0
  9
$TREEDEPTH
 70
  3020
  9
$CMLSTYLE
  2
Standard
  9
$CMLJUST
 70
     0
  9
$CMLSCALE
 40
1.0
  9
$PROXYGRAPHICS
 70
     1
  9
$MEASUREMENT
 70
     0
  9
$CELWEIGHT
370
    -1
  9
$ENDCAPS
280
     0
  9
$JOINSTYLE
280
     0
  9
$LWDISPLAY
290
     0
  9
$INSUNITS
 70
     0
  9
$HYPERLINKBASE
  1

  9
$STYLESHEET
  1

  9
$XEDIT
290
     1
  9
$CEPSNTYPE
380
     0
  9
$PSTYLEMODE
290
     1
  9
$FINGERPRINTGUID
  2
{437D8C73-CDD3-BC4C-9D3C-A4027B119EDB}
  9
$VERSIONGUID
  2
{C8D6FDA1-7B78-F345-A7DB-D17C761A3583}
  9
$EXTNAMES
290
     1
  9
$PSVPSCALE
 40
0.0
  9
$OLESTARTUP
290
     0
  0
ENDSEC
  0
SECTION
  2
CLASSES
  0
CLASS
  1
ACDBDICTIONARYWDFLT
  2
AcDbDictionaryWithDefault
  3
ObjectDBX Classes
 90
        0
280
     0
281
     0
  0
CLASS
  1
MATERIAL
  2
AcDbMaterial
  3
ObjectDBX Classes
 90
     1153
280
     0
281
     0
  0
CLASS
  1
VISUALSTYLE
  2
AcDbVisualStyle
  3
ObjectDBX Classes
 90
     4095
280
     0
281
     0
  0
CLASS
  1
SCALE
  2
AcDbScale
  3
ObjectDBX Classes
 90
     1153
280
     0
281
     0
  0
CLASS
  1
TABLESTYLE
  2
AcDbTableStyle
  3
ObjectDBX Classes
 90
     4095
280
     0
281
     0
  0
CLASS
  1
MLEADERSTYLE
  2
AcDbMLeaderStyle
  3
ACDB_MLEADERSTYLE_CLASS
 90
     4095
280
     0
281
     0
  0
CLASS
  1
ACDBSECTIONVIEWSTYLE
  2
AcDbSectionViewStyle
  3
ObjectDBX Classes
 90
     1025
280
     0
281
     0
  0
CLASS
  1
ACDBDETAILVIEWSTYLE
  2
AcDbDetailViewStyle
  3
ObjectDBX Classes
 90
     1025
280
     0
281
     0
  0
CLASS
  1
DICTIONARYVAR
  2
AcDbDictionaryVar
  3
ObjectDBX Classes
 90
        0
280
     0
281
     0
  0
CLASS
  1
CELLSTYLEMAP
  2
AcDbCellStyleMap
  3
ObjectDBX Classes
 90
     1152
280
     0
281
     0
  0
CLASS
  1
ACDBPLACEHOLDER
  2
AcDbPlaceHolder
  3
ObjectDBX Classes
 90
        0
280
     0
281
     0
  0
CLASS
  1
LAYOUT
  2
AcDbLayout
  3
ObjectDBX Classes
 90
        0
280
     0
281
     0
  0
ENDSEC
  0
SECTION
  2
TABLES
  0
TABLE
  2
VPORT
  5
417
330
0
100
AcDbSymbolTable
 70
     1
  0
VPORT
  5
483
330
417
100
AcDbSymbolTableRecord
100
AcDbViewportTableRecord
  2
*ACTIVE
 70
     0
 10
0.0
 20
0.0
 11
1.0
 21
1.0
 12
96.99166883900762
 22
137.4038372180589
 13
0.0
 23
0.0
 14
1.0
 24
1.0
 15
0.0
 25
0.0
 16
0.0
 26
0.0
 36
1.0
 17
0.0
 27
0.0
 37
0.0
 40
2685.664604945443
 41
2.358402971216341
 42
50.0
 43
0.0
 44
0.0
 50
0.0
 51
0.0
 71
     0
 72
  2000
 73
     1
 74
     1
 75
     0
 76
     0
 77
     0
 78
     0
281
     0
 65
     1
110
0.0
120
0.0
130
0.0
111
1.0
121
0.0
131
0.0
112
0.0
122
1.0
132
0.0
 79
     0
146
0.0
1001
ACAD_NAV_VCDISPLAY
1070
     3
  0
ENDTAB
  0
TABLE
  2
LTYPE
  5
414
330
0
100
AcDbSymbolTable
 70
    11
  0
LTYPE
  5
469
330
414
100
AcDbSymbolTableRecord
100
AcDbLinetypeTableRecord
  2
ByBlock
 70
     0
  3

 72
    65
 73
     0
 40
0.0
  0
LTYPE
  5
46A
330
414
100
AcDbSymbolTableRecord
100
AcDbLinetypeTableRecord
  2
ByLayer
 70
     0
  3

 72
    65
 73
     0
 40
0.0
  0
LTYPE
  5
46B
330
414
100
AcDbSymbolTableRecord
100
AcDbLinetypeTableRecord
  2
CONTINUOUS
 70
     0
  3
Solid line
 72
    65
 73
     0
 40
0.0
  0
ENDTAB
  0
TABLE
  2
LAYER
  5
411
330
0
100
AcDbSymbolTable
 70
     6
  0
LAYER
  5
463
102
{ACAD_XDICTIONARY
360
498
102
}
330
411
100
AcDbSymbolTableRecord
100
AcDbLayerTableRecord
  2
0
 70
     0
 62
     7
  6
CONTINUOUS
370
    -3
390
41E
  0
LAYER
  5
482
102
{ACAD_XDICTIONARY
360
49A
102
}
330
411
100
AcDbSymbolTableRecord
100
AcDbLayerTableRecord
  2
DATA
 70
     0
 62
     7
  6
CONTINUOUS
370
    -3
390
41E
  0
LAYER
  5
48E
102
{ACAD_XDICTIONARY
360
49C
102
}
330
411
100
AcDbSymbolTableRecord
100
AcDbLayerTableRecord
  2
HIBINO-BASE
 70
     0
 62
     7
  6
CONTINUOUS
370
    -3
390
41E
  0
LAYER
  5
48F
102
{ACAD_XDICTIONARY
360
49E
102
}
330
411
100
AcDbSymbolTableRecord
100
AcDbLayerTableRecord
  2
PATTERN_FILL
 70
     0
 62
     7
  6
CONTINUOUS
370
    -3
390
41E
  0
LAYER
  5
490
102
{ACAD_XDICTIONARY
360
4A0
102
}
330
411
100
AcDbSymbolTableRecord
100
AcDbLayerTableRecord
  2
SPEC
 70
     0
 62
     7
  6
CONTINUOUS
370
    -3
390
41E
  0
LAYER
  5
491
102
{ACAD_XDICTIONARY
360
4A2
102
}
330
411
100
AcDbSymbolTableRecord
100
AcDbLayerTableRecord
  2
DIMNSIONS
 70
     0
 62
     7
  6
CONTINUOUS
370
    -3
390
41E
  0
ENDTAB
  0
TABLE
  2
STYLE
  5
412
330
0
100
AcDbSymbolTable
 70
     3
  0
STYLE
  5
464
330
412
100
AcDbSymbolTableRecord
100
AcDbTextStyleTableRecord
  2
STANDARD
 70
     0
 40
0.0
 41
1.0
 50
0.0
 71
     0
 42
0.0
  3
txt
  4
BIGFONT.SHX
  0
ENDTAB
  0
TABLE
  2
VIEW
  5
415
330
0
100
AcDbSymbolTable
 70
     0
  0
ENDTAB
  0
TABLE
  2
UCS
  5
416
330
0
100
AcDbSymbolTable
 70
     0
  0
ENDTAB
  0
TABLE
  2
APPID
  5
418
330
0
100
AcDbSymbolTable
 70
     4
  0
APPID
  5
465
330
418
100
AcDbSymbolTableRecord
100
AcDbRegAppTableRecord
  2
ACAD
 70
     0
  0
APPID
  5
46C
330
418
100
AcDbSymbolTableRecord
100
AcDbRegAppTableRecord
  2
AcadAnnotative
 70
     0
  0
APPID
  5
4AE
330
418
100
AcDbSymbolTableRecord
100
AcDbRegAppTableRecord
  2
ACAD_NAV_VCDISPLAY
 70
     0
  0
APPID
  5
4E7
330
418
100
AcDbSymbolTableRecord
100
AcDbRegAppTableRecord
  2
ACAD_MLEADERVER
 70
     0
  0
ENDTAB
  0
TABLE
  2
DIMSTYLE
  5
419
330
0
100
AcDbSymbolTable
 70
     2
100
AcDbDimStyleTable
 71
     0
  0
DIMSTYLE
105
466
330
419
100
AcDbSymbolTableRecord
100
AcDbDimStyleTableRecord
  2
STANDARD
 70
     0
279
     2
340
464
  0
ENDTAB
  0
TABLE
  2
BLOCK_RECORD
  5
410
330
0
100
AcDbSymbolTable
 70
     0
  0
BLOCK_RECORD
  5
47E
330
410
100
AcDbSymbolTableRecord
100
AcDbBlockTableRecord
  2
*Model_Space
340
481
  0
BLOCK_RECORD
  5
47A
330
410
100
AcDbSymbolTableRecord
100
AcDbBlockTableRecord
  2
*Paper_Space
340
47D
  0
ENDTAB
  0
ENDSEC
  0
SECTION
  2
BLOCKS
  0
BLOCK
  5
47F
330
47E
100
AcDbEntity
  8
0
100
AcDbBlockBegin
  2
*Model_Space
 70
     0
 10
0.0
 20
0.0
 30
0.0
  3
*Model_Space
  1

  0
ENDBLK
  5
480
330
47E
100
AcDbEntity
  8
0
100
AcDbBlockEnd
  0
BLOCK
  5
47B
330
47A
100
AcDbEntity
 67
     1
  8
0
100
AcDbBlockBegin
  2
*Paper_Space
 70
     0
 10
0.0
 20
0.0
 30
0.0
  3
*Paper_Space
  1

  0
ENDBLK
  5
47C
330
47A
100
AcDbEntity
 67
     1
  8
0
100
AcDbBlockEnd
  0
ENDSEC
  0
SECTION
  2
ENTITIES
  0
LINE
  5
2D
330
47E
100
AcDbEntity
  8
HIBINO-BASE
  6
Continuous
 62
     7
100
AcDbLine
 10
-803.0083353519438
 20
1472.721981
 30
0.0
 11
996.9916646480561
 21
1472.721981
 31
0.0
  0
LINE
  5
2E
330
47E
100
AcDbEntity
  8
HIBINO-BASE
  6
Continuous
 62
     7
100
AcDbLine
 10
996.9916646480561
 20
-1127.278019
 30
0.0
 11
-803.0083353519438
 21
-1127.278019
 31
0.0
  0
LINE
  5
2F
330
47E
100
AcDbEntity
  8
HIBINO-BASE
  6
Continuous
 62
     7
100
AcDbLine
 10
-803.0083353519438
 20
-1127.278019
 30
0.0
 11
-803.0083353519438
 21
1472.721981
 31
0.0
  0
TEXT
  5
30
330
47E
100
AcDbEntity
  8
HIBINO-BASE
 62
     7
100
AcDbText
 10
-731.1683353519438
 20
-1191.364797
 30
0.0
 40
36.00044179687499
  1
Hibino Corporation
 41
0.7
 11
-731.1683353519438
 21
-1155.364355203125
 31
0.0
100
AcDbText
 73
     3
  0
LINE
  5
31
330
47E
100
AcDbEntity
  8
HIBINO-BASE
  6
Continuous
 62
     7
100
AcDbLine
 10
996.9916646480561
 20
1472.721981
 30
0.0
 11
996.9916646480561
 21
-1127.278019
 31
0.0
  0
LINE
  5
32
330
47E
100
AcDbEntity
  8
HIBINO-BASE
  6
Continuous
 62
     7
100
AcDbLine
 10
96.99166464805605
 20
-902.2780189999998
 30
0.0
 11
996.9916646480561
 21
-902.2780189999998
 31
0.0
  0
LINE
  5
33
330
47E
100
AcDbEntity
  8
HIBINO-BASE
  6
Continuous
 62
     7
100
AcDbLine
 10
96.99166464805605
 20
-1127.278019
 30
0.0
 11
96.99166464805605
 21
-902.2780189999998
 31
0.0
  0
TEXT
  5
34
330
47E
100
AcDbEntity
  8
HIBINO-BASE
 62
     7
100
AcDbText
 10
105.991664648056
 20
-927.3649523333332
 30
0.0
 40
16.28841145833333
  1
NOTE
 41
0.7
 11
105.991664648056
 21
-911.0765408749998
 31
0.0
100
AcDbText
 73
     3
  0
LINE
  5
35
330
47E
100
AcDbEntity
  8
HIBINO-BASE
  6
Continuous
 62
     7
100
AcDbLine
 10
446.991664648056
 20
-1127.278019
 30
0.0
 11
446.991664648056
 21
-902.2780189999998
 31
0.0
  0
TEXT
  5
36
330
47E
100
AcDbEntity
  8
HIBINO-BASE
 62
     7
100
AcDbText
 10
455.991664648056
 20
-927.3649523333332
 30
0.0
 40
16.28841145833333
  1
TITLE
 41
0.7
 11
455.991664648056
 21
-911.0765408749998
 31
0.0
100
AcDbText
 73
     3
  0
TEXT
  5
37
330
47E
100
AcDbEntity
  8
HIBINO-BASE
 62
     7
100
AcDbText
 10
597.6755646480559
 20
-1191.364797
 30
0.0
 40
36.00044179687499
  1
ヒビノ株式会社
 41
0.7
 11
597.6755646480559
 21
-1155.364355203125
 31
0.0
100
AcDbText
 73
     3
  0
LINE
  5
38
330
47E
100
AcDbEntity
  8
HIBINO-BASE
  6
Continuous
 62
     7
100
AcDbLine
 10
96.99166464805605
 20
-1027.278019
 30
0.0
 11
996.9916646480561
 21
-1027.278019
 31
0.0
  0
TEXT
  5
39
330
47E
100
AcDbEntity
  8
HIBINO-BASE
 62
     7
100
AcDbText
 10
580.991664648056
 20
-1051.801752333333
 30
0.0
 40
16.28841145833333
  1
DRAWN
 41
0.7
 11
580.991664648056
 21
-1035.513340874999
 31
0.0
100
AcDbText
 73
     3
  0
TEXT
  5
3A
330
47E
100
AcDbEntity
  8
HIBINO-BASE
 62
     7
100
AcDbText
 10
330.9916646480561
 20
-1051.801752333333
 30
0.0
 40
16.28841145833333
  1
DATE
 41
0.7
 11
330.9916646480561
 21
-1035.513340874999
 31
0.0
100
AcDbText
 73
     3
  0
TEXT
  5
3B
330
47E
100
AcDbEntity
  8
HIBINO-BASE
 62
     7
100
AcDbText
 10
230.991664648056
 20
-1051.801752333333
 30
0.0
 40
16.28841145833333
  1
SCALE
 41
0.7
 11
230.991664648056
 21
-1035.513340874999
 31
0.0
100
AcDbText
 73
     3
  0
TEXT
  5
3C
330
47E
100
AcDbEntity
  8
HIBINO-BASE
 62
     7
100
AcDbText
 10
455.991664648056
 20
-1051.801752333333
 30
0.0
 40
16.28841145833333
  1
DESIGN
 41
0.7
 11
455.991664648056
 21
-1035.513340874999
 31
0.0
100
AcDbText
 73
     3
  0
TEXT
  5
3D
330
47E
100
AcDbEntity
  8
HIBINO-BASE
 62
     7
100
AcDbText
 10
830.991664648056
 20
-1051.801752333333
 30
0.0
 40
16.28841145833333
  1
DRAWING NO.
 41
0.7
 11
830.991664648056
 21
-1035.513340874999
 31
0.0
100
AcDbText
 73
     3
  0
TEXT
  5
3E
330
47E
100
AcDbEntity
  8
HIBINO-BASE
 62
     7
100
AcDbText
 10
705.991664648056
 20
-1051.801752333333
 30
0.0
 40
16.28841145833333
  1
CHECK
 41
0.7
 11
705.991664648056
 21
-1035.513340874999
 31
0.0
100
AcDbText
 73
     3
  0
LINE
  5
3F
330
47E
100
AcDbEntity
  8
HIBINO-BASE
  6
Continuous
 62
     7
100
AcDbLine
 10
240.741664648056
 20
-1114.778019
 30
0.0
 11
278.241664648056
 21
-1077.278019
 31
0.0
  0
TEXT
  5
40
330
47E
100
AcDbEntity
  8
HIBINO-BASE
 62
     7
100
AcDbText
 10
234.491664648056
 20
-1088.367452333333
 30
0.0
 40
16.28841145833333
  1
1
 41
0.7
 11
234.491664648056
 21
-1072.079040875
 31
0.0
100
AcDbText
 73
     3
  0
LINE
  5
41
330
47E
100
AcDbEntity
  8
HIBINO-BASE
  6
Continuous
 62
     7
100
AcDbLine
 10
221.991664648056
 20
-1127.278019
 30
0.0
 11
221.991664648056
 21
-1027.278019
 31
0.0
  0
LINE
  5
42
330
47E
100
AcDbEntity
  8
HIBINO-BASE
  6
Continuous
 62
     7
100
AcDbLine
 10
321.9916646480561
 20
-1127.278019
 30
0.0
 11
321.9916646480561
 21
-1027.278019
 31
0.0
  0
LINE
  5
43
330
47E
100
AcDbEntity
  8
HIBINO-BASE
  6
Continuous
 62
     7
100
AcDbLine
 10
571.991664648056
 20
-1027.278019
 30
0.0
 11
571.991664648056
 21
-1127.278019
 31
0.0
  0
LINE
  5
44
330
47E
100
AcDbEntity
  8
HIBINO-BASE
  6
Continuous
 62
     7
100
AcDbLine
 10
821.9916646480561
 20
-1027.278019
 30
0.0
 11
821.9916646480561
 21
-1127.278019
 31
0.0
  0
LINE
  5
45
330
47E
100
AcDbEntity
  8
HIBINO-BASE
  6
Continuous
 62
     7
100
AcDbLine
 10
696.991664648056
 20
-1127.278019
 30
0.0
 11
696.991664648056
 21
-1027.278019
 31
0.0
  0
TEXT
  5
46
330
47E
100
AcDbEntity
  8
HIBINO-BASE
 62
     7
100
AcDbText
 10
330.557064648056
 20
-1098.641552333333
 30
0.0
 40
16.28841145833333
  1
'17.02.
 41
0.7
 11
330.557064648056
 21
-1082.353140875
 31
0.0
100
AcDbText
 73
     3
  0
TEXT
  5
47
330
47E
100
AcDbEntity
  8
HIBINO-BASE
 62
     7
100
AcDbText
 10
271.991664648056
 20
-1107.117452333333
 30
0.0
 40
16.28841145833333
  1
10
 41
0.7
 11
271.991664648056
 21
-1090.829040875
 31
0.0
100
AcDbText
 73
     3
  0
TEXT
  5
48
330
47E
100
AcDbEntity
  8
HIBINO-BASE
 62
     7
100
AcDbText
 10
135.8249979813895
 20
-1107.518019
 30
0.0
 40
32.57682291666667
  1
A4
 41
0.7
 11
135.8249979813895
 21
-1074.941196083333
 31
0.0
100
AcDbText
 73
     3
  0
TEXT
  5
49
330
47E
100
AcDbEntity
  8
HIBINO-BASE
 62
     7
100
AcDbText
 10
106.5749979813893
 20
-1053.472568999999
 30
0.0
 40
16.28841145833333
  1
PAPER SIZE
 41
0.7
 11
106.5749979813893
 21
-1037.184157541666
 31
0.0
100
AcDbText
 73
     3
  0
TEXT
  5
4A
330
47E
100
AcDbEntity
  8
HIBINO-BASE
 62
     7
100
AcDbText
 10
587.0497647584024
 20
-1098.641552333333
 30
0.0
 40
16.28841145833333
  1
N.Sasaki
 41
0.7
 11
587.0497647584024
 21
-1082.353140875
 31
0.0
100
AcDbText
 73
     3
  0
CIRCLE
  5
4B
330
47E
100
AcDbEntity
  8
PATTERN_FILL
  6
Continuous
 62
     7
100
AcDbCircle
 10
-345.0703230286327
 20
-110.0
 30
0.0
 40
3.5
  0
CIRCLE
  5
4C
330
47E
100
AcDbEntity
  8
PATTERN_FILL
  6
Continuous
 62
     7
100
AcDbCircle
 10
-345.0703230286327
 20
-120.0
 30
0.0
 40
3.5
  0
CIRCLE
  5
4D
330
47E
100
AcDbEntity
  8
PATTERN_FILL
  6
Continuous
 62
     7
100
AcDbCircle
 10
-345.0703230286327
 20
-130.0
 30
0.0
 40
3.5
  0
CIRCLE
  5
4E
330
47E
100
AcDbEntity
  8
PATTERN_FILL
  6
Continuous
 62
     7
100
AcDbCircle
 10
-345.0703230286327
 20
-140.0
 30
0.0
 40
3.5
  0
CIRCLE
  5
4F
330
47E
100
AcDbEntity
  8
PATTERN_FILL
  6
Continuous
 62
     7
100
AcDbCircle
 10
-345.0703230286327
 20
-150.0
 30
0.0
 40
3.5
  0
CIRCLE
  5
50
330
47E
100
AcDbEntity
  8
PATTERN_FILL
  6
Continuous
 62
     7
100
AcDbCircle
 10
-345.0703230286327
 20
-160.0
 30
0.0
 40
3.5
  0
CIRCLE
  5
51
330
47E
100
AcDbEntity
  8
PATTERN_FILL
  6
Continuous
 62
     7
100
AcDbCircle
 10
-345.0703230286327
 20
-170.0
 30
0.0
 40
3.5
  0
CIRCLE
  5
52
330
47E
100
AcDbEntity
  8
PATTERN_FILL
  6
Continuous
 62
     7
100
AcDbCircle
 10
-345.0703230286327
 20
-180.0
 30
0.0
 40
3.5
  0
CIRCLE
  5
53
330
47E
100
AcDbEntity
  8
PATTERN_FILL
  6
Continuous
 62
     7
100
AcDbCircle
 10
-345.0703230286327
 20
-190.0
 30
0.0
 40
3.5
  0
CIRCLE
  5
54
330
47E
100
AcDbEntity
  8
PATTERN_FILL
  6
Continuous
 62
     7
100
AcDbCircle
 10
-345.0703230286327
 20
-200.0
 30
0.0
 40
3.5
  0
CIRCLE
  5
55
330
47E
100
AcDbEntity
  8
PATTERN_FILL
  6
Continuous
 62
     7
100
AcDbCircle
 10
-345.0703230286327
 20
-210.0
 30
0.0
 40
3.5
  0
CIRCLE
  5
56
330
47E
100
AcDbEntity
  8
PATTERN_FILL
  6
Continuous
 62
     7
100
AcDbCircle
 10
-345.0703230286327
 20
-220.0
 30
0.0
 40
3.5
  0
CIRCLE
  5
57
330
47E
100
AcDbEntity
  8
PATTERN_FILL
  6
Continuous
 62
     7
100
AcDbCircle
 10
-345.0703230286327
 20
-230.0
 30
0.0
 40
3.5
  0
CIRCLE
  5
58
330
47E
100
AcDbEntity
  8
PATTERN_FILL
  6
Continuous
 62
     7
100
AcDbCircle
 10
-345.0703230286327
 20
-240.0
 30
0.0
 40
3.5
  0
CIRCLE
  5
59
330
47E
100
AcDbEntity
  8
PATTERN_FILL
  6
Continuous
 62
     7
100
AcDbCircle
 10
-345.0703230286327
 20
-250.0
 30
0.0
 40
3.5
  0
CIRCLE
  5
5A
330
47E
100
AcDbEntity
  8
PATTERN_FILL
  6
Continuous
 62
     7
100
AcDbCircle
 10
-345.0703230286327
 20
-260.0
 30
0.0
 40
3.5
  0
CIRCLE
  5
5B
330
47E
100
AcDbEntity
  8
PATTERN_FILL
  6
Continuous
 62
     7
100
AcDbCircle
 10
-345.0703230286327
 20
-270.0
 30
0.0
 40
3.5
  0
CIRCLE
  5
5C
330
47E
100
AcDbEntity
  8
PATTERN_FILL
  6
Continuous
 62
     7
100
AcDbCircle
 10
-345.0703230286327
 20
-280.0
 30
0.0
 40
3.5
  0
CIRCLE
  5
5D
330
47E
100
AcDbEntity
  8
PATTERN_FILL
  6
Continuous
 62
     7
100
AcDbCircle
 10
-345.0703230286327
 20
-290.0
 30
0.0
 40
3.5
  0
CIRCLE
  5
5E
330
47E
100
AcDbEntity
  8
PATTERN_FILL
  6
Continuous
 62
     7
100
AcDbCircle
 10
-345.0703230286327
 20
-300.0
 30
0.0
 40
3.5
  0
CIRCLE
  5
5F
330
47E
100
AcDbEntity
  8
PATTERN_FILL
  6
Continuous
 62
     7
100
AcDbCircle
 10
-345.0703230286327
 20
-90.0
 30
0.0
 40
3.5
  0
CIRCLE
  5
60
330
47E
100
AcDbEntity
  8
PATTERN_FILL
  6
Continuous
 62
     7
100
AcDbCircle
 10
-345.0703230286327
 20
-100.0
 30
0.0
 40
3.5
  0
ARC
  5
61
330
47E
100
AcDbEntity
  8
PATTERN_FILL
  6
Continuous
 62
     7
100
AcDbCircle
 10
-345.0703230286327
 20
-80.0
 30
0.0
 40
3.5
100
AcDbArc
 50
195.0882488000596
 51
138.4307113695654
  0
ARC
  5
62
330
47E
100
AcDbEntity
  8
PATTERN_FILL
  6
Continuous
 62
     7
100
AcDbCircle
 10
-345.0703230286328
 20
-70.0
 30
0.0
 40
3.50000000000019
100
AcDbArc
 50
243.7071371618141
 51
89.81182300781425
  0
ARC
  5
63
330
47E
100
AcDbEntity
  8
PATTERN_FILL
  6
Continuous
 62
     7
100
AcDbCircle
 10
-345.0703230286327
 20
-60.0
 30
0.0
 40
3.500000000000058
100
AcDbArc
 50
282.1354982512425
 51
51.38346191838328
  0
CIRCLE
  5
64
330
47E
100
AcDbEntity
  8
PATTERN_FILL
  6
Continuous
 62
     7
100
AcDbCircle
 10
-345.0703230286327
 20
-310.0
 30
0.0
 40
3.5
  0
ARC
  5
65
330
47E
100
AcDbEntity
  8
PATTERN_FILL
  6
Continuous
 62
     7
100
AcDbCircle
 10
-345.0703230286328
 20
-320.0
 30
0.0
 40
3.499999999999793
100
AcDbArc
 50
221.5692886306373
 51
164.9117511997317
  0
ARC
  5
66
330
47E
100
AcDbEntity
  8
PATTERN_FILL
  6
Continuous
 62
     7
100
AcDbCircle
 10
-345.0703230286327
 20
-330.0
 30
0.0
 40
3.499999999999805
100
AcDbArc
 50
270.1881769922061
 51
116.2928628381709
  0
ARC
  5
67
330
47E
100
AcDbEntity
  8
PATTERN_FILL
  6
Continuous
 62
     7
100
AcDbCircle
 10
-345.0703230286327
 20
-340.0
 30
0.0
 40
3.50000000000021
100
AcDbArc
 50
308.6165380815883
 51
77.86450174878307
  0
CIRCLE
  5
68
330
47E
100
AcDbEntity
  8
PATTERN_FILL
  6
Continuous
 62
     7
100
AcDbCircle
 10
-529.0517742439574
 20
-90.00000000000005
 30
0.0
 40
3.5
  0
CIRCLE
  5
69
330
47E
100
AcDbEntity
  8
PATTERN_FILL
  6
Continuous
 62
     7
100
AcDbCircle
 10
-519.0517742439574
 20
-90.00000000000005
 30
0.0
 40
3.5
  0
CIRCLE
  5
6A
330
47E
100
AcDbEntity
  8
PATTERN_FILL
  6
Continuous
 62
     7
100
AcDbCircle
 10
-509.0517742439574
 20
-90.00000000000005
 30
0.0
 40
3.5
  0
CIRCLE
  5
6B
330
47E
100
AcDbEntity
  8
PATTERN_FILL
  6
Continuous
 62
     7
100
AcDbCircle
 10
-499.0517742439574
 20
-90.00000000000005
 30
0.0
 40
3.5
  0
CIRCLE
  5
6C
330
47E
100
AcDbEntity
  8
PATTERN_FILL
  6
Continuous
 62
     7
100
AcDbCircle
 10
-489.0517742439574
 20
-90.00000000000005
 30
0.0
 40
3.5
  0
CIRCLE
  5
6D
330
47E
100
AcDbEntity
  8
PATTERN_FILL
  6
Continuous
 62
     7
100
AcDbCircle
 10
-479.0517742439574
 20
-90.00000000000005
 30
0.0
 40
3.5
  0
CIRCLE
  5
6E
330
47E
100
AcDbEntity
  8
PATTERN_FILL
  6
Continuous
 62
     7
100
AcDbCircle
 10
-469.0517742439574
 20
-90.00000000000005
 30
0.0
 40
3.5
  0
CIRCLE
  5
6F
330
47E
100
AcDbEntity
  8
PATTERN_FILL
  6
Continuous
 62
     7
100
AcDbCircle
 10
-459.0517742439574
 20
-90.00000000000005
 30
0.0
 40
3.5
  0
ARC
  5
70
330
47E
100
AcDbEntity
  8
PATTERN_FILL
  6
Continuous
 62
     7
100
AcDbCircle
 10
-449.0517742439574
 20
-90.00000000000005
 30
0.0
 40
3.500000000000009
100
AcDbArc
 50
168.9879426815323
 51
285.9261588736336
  0
CIRCLE
  5
71
330
47E
100
AcDbEntity
  8
PATTERN_FILL
  6
Continuous
 62
     7
100
AcDbCircle
 10
-529.0517742439574
 20
-100.0
 30
0.0
 40
3.5
  0
CIRCLE
  5
72
330
47E
100
AcDbEntity
  8
PATTERN_FILL
  6
Continuous
 62
     7
100
AcDbCircle
 10
-519.0517742439574
 20
-100.0
 30
0.0
 40
3.5
  0
CIRCLE
  5
73
330
47E
100
AcDbEntity
  8
PATTERN_FILL
  6
Continuous
 62
     7
100
AcDbCircle
 10
-509.0517742439574
 20
-100.0
 30
0.0
 40
3.5
  0
CIRCLE
  5
74
330
47E
100
AcDbEntity
  8
PATTERN_FILL
  6
Continuous
 62
     7
100
AcDbCircle
 10
-499.0517742439574
 20
-100.0
 30
0.0
 40
3.5
  0
CIRCLE
  5
75
330
47E
100
AcDbEntity
  8
PATTERN_FILL
  6
Continuous
 62
     7
100
AcDbCircle
 10
-489.0517742439574
 20
-100.0
 30
0.0
 40
3.5
  0
CIRCLE
  5
76
330
47E
100
AcDbEntity
  8
PATTERN_FILL
  6
Continuous
 62
     7
100
AcDbCircle
 10
-479.0517742439574
 20
-100.0
 30
0.0
 40
3.5
  0
CIRCLE
  5
77
330
47E
100
AcDbEntity
  8
PATTERN_FILL
  6
Continuous
 62
     7
100
AcDbCircle
 10
-469.0517742439574
 20
-100.0
 30
0.0
 40
3.5
  0
CIRCLE
  5
78
330
47E
100
AcDbEntity
  8
PATTERN_FILL
  6
Continuous
 62
     7
100
AcDbCircle
 10
-459.0517742439574
 20
-100.0
 30
0.0
 40
3.5
  0
CIRCLE
  5
79
330
47E
100
AcDbEntity
  8
PATTERN_FILL
  6
Continuous
 62
     7
100
AcDbCircle
 10
-449.0517742439574
 20
-100.0
 30
0.0
 40
3.5
  0
ARC
  5
7A
330
47E
100
AcDbEntity
  8
PATTERN_FILL
  6
Continuous
 62
     7
100
AcDbCircle
 10
-439.0517742439576
 20
-100.0
 30
0.0
 40
3.499999999999779
100
AcDbArc
 50
164.7721852574635
 51
279.2858371636035
  0
CIRCLE
  5
7B
330
47E
100
AcDbEntity
  8
PATTERN_FILL
  6
Continuous
 62
     7
100
AcDbCircle
 10
-529.0517742439574
 20
-110.0
 30
0.0
 40
3.5
  0
CIRCLE
  5
7C
330
47E
100
AcDbEntity
  8
PATTERN_FILL
  6
Continuous
 62
     7
100
AcDbCircle
 10
-519.0517742439574
 20
-110.0
 30
0.0
 40
3.5
  0
CIRCLE
  5
7D
330
47E
100
AcDbEntity
  8
PATTERN_FILL
  6
Continuous
 62
     7
100
AcDbCircle
 10
-509.0517742439574
 20
-110.0
 30
0.0
 40
3.5
  0
CIRCLE
  5
7E
330
47E
100
AcDbEntity
  8
PATTERN_FILL
  6
Continuous
 62
     7
100
AcDbCircle
 10
-499.0517742439574
 20
-110.0
 30
0.0
 40
3.5
  0
CIRCLE
  5
7F
330
47E
100
AcDbEntity
  8
PATTERN_FILL
  6
Continuous
 62
     7
100
AcDbCircle
 10
-489.0517742439574
 20
-110.0
 30
0.0
 40
3.5
  0
CIRCLE
  5
80
330
47E
100
AcDbEntity
  8
PATTERN_FILL
  6
Continuous
 62
     7
100
AcDbCircle
 10
-479.0517742439574
 20
-110.0
 30
0.0
 40
3.5
  0
CIRCLE
  5
81
330
47E
100
AcDbEntity
  8
PATTERN_FILL
  6
Continuous
 62
     7
100
AcDbCircle
 10
-469.0517742439574
 20
-110.0
 30
0.0
 40
3.5
  0
CIRCLE
  5
82
330
47E
100
AcDbEntity
  8
PATTERN_FILL
  6
Continuous
 62
     7
100
AcDbCircle
 10
-459.0517742439574
 20
-110.0
 30
0.0
 40
3.5
  0
CIRCLE
  5
83
330
47E
100
AcDbEntity
  8
PATTERN_FILL
  6
Continuous
 62
     7
100
AcDbCircle
 10
-449.0517742439574
 20
-110.0
 30
0.0
 40
3.5
  0
CIRCLE
  5
84
330
47E
100
AcDbEntity
  8
PATTERN_FILL
  6
Continuous
 62
     7
100
AcDbCircle
 10
-439.0517742439574
 20
-110.0
 30
0.0
 40
3.5
  0
CIRCLE
  5
85
330
47E
100
AcDbEntity
  8
PATTERN_FILL
  6
Continuous
 62
     7
100
AcDbCircle
 10
-529.0517742439574
 20
-120.0
 30
0.0
 40
3.5
  0
CIRCLE
  5
86
330
47E
100
AcDbEntity
  8
PATTERN_FILL
  6
Continuous
 62
     7
100
AcDbCircle
 10
-519.0517742439574
 20
-120.0
 30
0.0
 40
3.5
  0
CIRCLE
  5
87
330
47E
100
AcDbEntity
  8
PATTERN_FILL
  6
Continuous
 62
     7
100
AcDbCircle
 10
-509.0517742439574
 20
-120.0
 30
0.0
 40
3.5
  0
CIRCLE
  5
88
330
47E
100
AcDbEntity
  8
PATTERN_FILL
  6
Continuous
 62
     7
100
AcDbCircle
 10
-499.0517742439574
 20
-120.0
 30
0.0
 40
3.5
  0
CIRCLE
  5
89
330
47E
100
AcDbEntity
  8
PATTERN_FILL
  6
Continuous
 62
     7
100
AcDbCircle
 10
-489.0517742439574
 20
-120.0
 30
0.0
 40
3.5
  0
CIRCLE
  5
8A
330
47E
100
AcDbEntity
  8
PATTERN_FILL
  6
Continuous
 62
     7
100
AcDbCircle
 10
-479.0517742439574
 20
-120.0
 30
0.0
 40
3.5
  0
CIRCLE
  5
8B
330
47E
100
AcDbEntity
  8
PATTERN_FILL
  6
Continuous
 62
     7
100
AcDbCircle
 10
-469.0517742439574
 20
-120.0
 30
0.0
 40
3.5
  0
CIRCLE
  5
8C
330
47E
100
AcDbEntity
  8
PATTERN_FILL
  6
Continuous
 62
     7
100
AcDbCircle
 10
-459.0517742439574
 20
-120.0
 30
0.0
 40
3.5
  0
CIRCLE
  5
8D
330
47E
100
AcDbEntity
  8
PATTERN_FILL
  6
Continuous
 62
     7
100
AcDbCircle
 10
-449.0517742439574
 20
-120.0
 30
0.0
 40
3.5
  0
CIRCLE
  5
8E
330
47E
100
AcDbEntity
  8
PATTERN_FILL
  6
Continuous
 62
     7
100
AcDbCircle
 10
-439.0517742439574
 20
-120.0
 30
0.0
 40
3.5
  0
ARC
  5
8F
330
47E
100
AcDbEntity
  8
PATTERN_FILL
  6
Continuous
 62
     7
100
AcDbCircle
 10
-429.0517742439576
 20
-120.0
 30
0.0
 40
3.499999999999788
100
AcDbArc
 50
78.66125080191115
 51
348.3032419153269
  0
CIRCLE
  5
90
330
47E
100
AcDbEntity
  8
PATTERN_FILL
  6
Continuous
 62
     7
100
AcDbCircle
 10
-529.0517742439574
 20
-130.0
 30
0.0
 40
3.500000000000056
  0
CIRCLE
  5
91
330
47E
100
AcDbEntity
  8
PATTERN_FILL
  6
Continuous
 62
     7
100
AcDbCircle
 10
-519.0517742439574
 20
-130.0
 30
0.0
 40
3.500000000000056
  0
CIRCLE
  5
92
330
47E
100
AcDbEntity
  8
PATTERN_FILL
  6
Continuous
 62
     7
100
AcDbCircle
 10
-509.0517742439574
 20
-130.0
 30
0.0
 40
3.500000000000056
  0
CIRCLE
  5
93
330
47E
100
AcDbEntity
  8
PATTERN_FILL
  6
Continuous
 62
     7
100
AcDbCircle
 10
-499.0517742439574
 20
-130.0
 30
0.0
 40
3.500000000000056
  0
CIRCLE
  5
94
330
47E
100
AcDbEntity
  8
PATTERN_FILL
  6
Continuous
 62
     7
100
AcDbCircle
 10
-489.0517742439574
 20
-130.0
 30
0.0
 40
3.500000000000056
  0
CIRCLE
  5
95
330
47E
100
AcDbEntity
  8
PATTERN_FILL
  6
Continuous
 62
     7
100
AcDbCircle
 10
-479.0517742439574
 20
-130.0
 30
0.0
 40
3.500000000000056
  0
CIRCLE
  5
96
330
47E
100
AcDbEntity
  8
PATTERN_FILL
  6
Continuous
 62
     7
100
AcDbCircle
 10
-469.0517742439574
 20
-130.0
 30
0.0
 40
3.500000000000056
  0
CIRCLE
  5
97
330
47E
100
AcDbEntity
  8
PATTERN_FILL
  6
Continuous
 62
     7
100
AcDbCircle
 10
-459.0517742439574
 20
-130.0
 30
0.0
 40
3.500000000000056
  0
CIRCLE
  5
98
330
47E
100
AcDbEntity
  8
PATTERN_FILL
  6
Continuous
 62
     7
100
AcDbCircle
 10
-449.0517742439574
 20
-130.0
 30
0.0
 40
3.500000000000056
  0
CIRCLE
  5
99
330
47E
100
AcDbEntity
  8
PATTERN_FILL
  6
Continuous
 62
     7
100
AcDbCircle
 10
-439.0517742439574
 20
-130.0
 30
0.0
 40
3.500000000000056
  0
CIRCLE
  5
9A
330
47E
100
AcDbEntity
  8
PATTERN_FILL
  6
Continuous
 62
     7
100
AcDbCircle
 10
-429.0517742439574
 20
-130.0
 30
0.0
 40
3.500000000000056
  0
ARC
  5
9B
330
47E
100
AcDbEntity
  8
PATTERN_FILL
  6
Continuous
 62
     7
100
AcDbCircle
 10
-419.0517742439574
 20
-130.0
 30
0.0
 40
3.500000000000006
100
AcDbArc
 50
135.1013822881885
 51
281.153188129471
  0
CIRCLE
  5
9C
330
47E
100
AcDbEntity
  8
PATTERN_FILL
  6
Continuous
 62
     7
100
AcDbCircle
 10
-529.0517742439574
 20
-140.0
 30
0.0
 40
3.5
  0
CIRCLE
  5
9D
330
47E
100
AcDbEntity
  8
PATTERN_FILL
  6
Continuous
 62
     7
100
AcDbCircle
 10
-519.0517742439574
 20
-140.0
 30
0.0
 40
3.5
  0
CIRCLE
  5
9E
330
47E
100
AcDbEntity
  8
PATTERN_FILL
  6
Continuous
 62
     7
100
AcDbCircle
 10
-509.0517742439574
 20
-140.0
 30
0.0
 40
3.5
  0
CIRCLE
  5
9F
330
47E
100
AcDbEntity
  8
PATTERN_FILL
  6
Continuous
 62
     7
100
AcDbCircle
 10
-499.0517742439574
 20
-140.0
 30
0.0
 40
3.5
  0
CIRCLE
  5
A0
330
47E
100
AcDbEntity
  8
PATTERN_FILL
  6
Continuous
 62
     7
100
AcDbCircle
 10
-489.0517742439574
 20
-140.0
 30
0.0
 40
3.5
  0
CIRCLE
  5
A1
330
47E
100
AcDbEntity
  8
PATTERN_FILL
  6
Continuous
 62
     7
100
AcDbCircle
 10
-479.0517742439574
 20
-140.0
 30
0.0
 40
3.5
  0
CIRCLE
  5
A2
330
47E
100
AcDbEntity
  8
PATTERN_FILL
  6
Continuous
 62
     7
100
AcDbCircle
 10
-469.0517742439574
 20
-140.0
 30
0.0
 40
3.5
  0
CIRCLE
  5
A3
330
47E
100
AcDbEntity
  8
PATTERN_FILL
  6
Continuous
 62
     7
100
AcDbCircle
 10
-459.0517742439574
 20
-140.0
 30
0.0
 40
3.5
  0
CIRCLE
  5
A4
330
47E
100
AcDbEntity
  8
PATTERN_FILL
  6
Continuous
 62
     7
100
AcDbCircle
 10
-449.0517742439574
 20
-140.0
 30
0.0
 40
3.5
  0
CIRCLE
  5
A5
330
47E
100
AcDbEntity
  8
PATTERN_FILL
  6
Continuous
 62
     7
100
AcDbCircle
 10
-439.0517742439574
 20
-140.0
 30
0.0
 40
3.5
  0
CIRCLE
  5
A6
330
47E
100
AcDbEntity
  8
PATTERN_FILL
  6
Continuous
 62
     7
100
AcDbCircle
 10
-429.0517742439574
 20
-140.0
 30
0.0
 40
3.5
  0
CIRCLE
  5
A7
330
47E
100
AcDbEntity
  8
PATTERN_FILL
  6
Continuous
 62
     7
100
AcDbCircle
 10
-419.0517742439574
 20
-140.0
 30
0.0
 40
3.5
  0
CIRCLE
  5
A8
330
47E
100
AcDbEntity
  8
PATTERN_FILL
  6
Continuous
 62
     7
100
AcDbCircle
 10
-529.0517742439574
 20
-150.0
 30
0.0
 40
3.5
  0
CIRCLE
  5
A9
330
47E
100
AcDbEntity
  8
PATTERN_FILL
  6
Continuous
 62
     7
100
AcDbCircle
 10
-519.0517742439574
 20
-150.0
 30
0.0
 40
3.5
  0
CIRCLE
  5
AA
330
47E
100
AcDbEntity
  8
PATTERN_FILL
  6
Continuous
 62
     7
100
AcDbCircle
 10
-509.0517742439574
 20
-150.0
 30
0.0
 40
3.5
  0
CIRCLE
  5
AB
330
47E
100
AcDbEntity
  8
PATTERN_FILL
  6
Continuous
 62
     7
100
AcDbCircle
 10
-499.0517742439574
 20
-150.0
 30
0.0
 40
3.5
  0
CIRCLE
  5
AC
330
47E
100
AcDbEntity
  8
PATTERN_FILL
  6
Continuous
 62
     7
100
AcDbCircle
 10
-489.0517742439574
 20
-150.0
 30
0.0
 40
3.5
  0
CIRCLE
  5
AD
330
47E
100
AcDbEntity
  8
PATTERN_FILL
  6
Continuous
 62
     7
100
AcDbCircle
 10
-479.0517742439574
 20
-150.0
 30
0.0
 40
3.5
  0
CIRCLE
  5
AE
330
47E
100
AcDbEntity
  8
PATTERN_FILL
  6
Continuous
 62
     7
100
AcDbCircle
 10
-469.0517742439574
 20
-150.0
 30
0.0
 40
3.5
  0
CIRCLE
  5
AF
330
47E
100
AcDbEntity
  8
PATTERN_FILL
  6
Continuous
 62
     7
100
AcDbCircle
 10
-459.0517742439574
 20
-150.0
 30
0.0
 40
3.5
  0
CIRCLE
  5
B0
330
47E
100
AcDbEntity
  8
PATTERN_FILL
  6
Continuous
 62
     7
100
AcDbCircle
 10
-449.0517742439574
 20
-150.0
 30
0.0
 40
3.5
  0
CIRCLE
  5
B1
330
47E
100
AcDbEntity
  8
PATTERN_FILL
  6
Continuous
 62
     7
100
AcDbCircle
 10
-439.0517742439574
 20
-150.0
 30
0.0
 40
3.5
  0
CIRCLE
  5
B2
330
47E
100
AcDbEntity
  8
PATTERN_FILL
  6
Continuous
 62
     7
100
AcDbCircle
 10
-429.0517742439574
 20
-150.0
 30
0.0
 40
3.5
  0
CIRCLE
  5
B3
330
47E
100
AcDbEntity
  8
PATTERN_FILL
  6
Continuous
 62
     7
100
AcDbCircle
 10
-419.0517742439574
 20
-150.0
 30
0.0
 40
3.5
  0
ARC
  5
B4
330
47E
100
AcDbEntity
  8
PATTERN_FILL
  6
Continuous
 62
     7
100
AcDbCircle
 10
-409.0517742439574
 20
-150.0
 30
0.0
 40
3.500000000000174
100
AcDbArc
 50
146.0109058507623
 51
253.0523764196071
  0
CIRCLE
  5
B5
330
47E
100
AcDbEntity
  8
PATTERN_FILL
  6
Continuous
 62
     7
100
AcDbCircle
 10
-529.0517742439574
 20
-160.0
 30
0.0
 40
3.5
  0
CIRCLE
  5
B6
330
47E
100
AcDbEntity
  8
PATTERN_FILL
  6
Continuous
 62
     7
100
AcDbCircle
 10
-519.0517742439574
 20
-160.0
 30
0.0
 40
3.5
  0
CIRCLE
  5
B7
330
47E
100
AcDbEntity
  8
PATTERN_FILL
  6
Continuous
 62
     7
100
AcDbCircle
 10
-509.0517742439574
 20
-160.0
 30
0.0
 40
3.5
  0
CIRCLE
  5
B8
330
47E
100
AcDbEntity
  8
PATTERN_FILL
  6
Continuous
 62
     7
100
AcDbCircle
 10
-499.0517742439574
 20
-160.0
 30
0.0
 40
3.5
  0
CIRCLE
  5
B9
330
47E
100
AcDbEntity
  8
PATTERN_FILL
  6
Continuous
 62
     7
100
AcDbCircle
 10
-489.0517742439574
 20
-160.0
 30
0.0
 40
3.5
  0
CIRCLE
  5
BA
330
47E
100
AcDbEntity
  8
PATTERN_FILL
  6
Continuous
 62
     7
100
AcDbCircle
 10
-479.0517742439574
 20
-160.0
 30
0.0
 40
3.5
  0
CIRCLE
  5
BB
330
47E
100
AcDbEntity
  8
PATTERN_FILL
  6
Continuous
 62
     7
100
AcDbCircle
 10
-469.0517742439574
 20
-160.0
 30
0.0
 40
3.5
  0
CIRCLE
  5
BC
330
47E
100
AcDbEntity
  8
PATTERN_FILL
  6
Continuous
 62
     7
100
AcDbCircle
 10
-459.0517742439574
 20
-160.0
 30
0.0
 40
3.5
  0
CIRCLE
  5
BD
330
47E
100
AcDbEntity
  8
PATTERN_FILL
  6
Continuous
 62
     7
100
AcDbCircle
 10
-449.0517742439574
 20
-160.0
 30
0.0
 40
3.5
  0
CIRCLE
  5
BE
330
47E
100
AcDbEntity
  8
PATTERN_FILL
  6
Continuous
 62
     7
100
AcDbCircle
 10
-439.0517742439574
 20
-160.0
 30
0.0
 40
3.5
  0
CIRCLE
  5
BF
330
47E
100
AcDbEntity
  8
PATTERN_FILL
  6
Continuous
 62
     7
100
AcDbCircle
 10
-429.0517742439574
 20
-160.0
 30
0.0
 40
3.5
  0
CIRCLE
  5
C0
330
47E
100
AcDbEntity
  8
PATTERN_FILL
  6
Continuous
 62
     7
100
AcDbCircle
 10
-419.0517742439574
 20
-160.0
 30
0.0
 40
3.5
  0
ARC
  5
C1
330
47E
100
AcDbEntity
  8
PATTERN_FILL
  6
Continuous
 62
     7
100
AcDbCircle
 10
-409.0517742439576
 20
-160.0
 30
0.0
 40
3.500000000000118
100
AcDbArc
 50
90.13946029895745
 51
301.5475911599537
  0
CIRCLE
  5
C2
330
47E
100
AcDbEntity
  8
PATTERN_FILL
  6
Continuous
 62
     7
100
AcDbCircle
 10
-529.0517742439574
 20
-170.0
 30
0.0
 40
3.5
  0
CIRCLE
  5
C3
330
47E
100
AcDbEntity
  8
PATTERN_FILL
  6
Continuous
 62
     7
100
AcDbCircle
 10
-519.0517742439574
 20
-170.0
 30
0.0
 40
3.5
  0
CIRCLE
  5
C4
330
47E
100
AcDbEntity
  8
PATTERN_FILL
  6
Continuous
 62
     7
100
AcDbCircle
 10
-509.0517742439574
 20
-170.0
 30
0.0
 40
3.5
  0
CIRCLE
  5
C5
330
47E
100
AcDbEntity
  8
PATTERN_FILL
  6
Continuous
 62
     7
100
AcDbCircle
 10
-499.0517742439574
 20
-170.0
 30
0.0
 40
3.5
  0
CIRCLE
  5
C6
330
47E
100
AcDbEntity
  8
PATTERN_FILL
  6
Continuous
 62
     7
100
AcDbCircle
 10
-489.0517742439574
 20
-170.0
 30
0.0
 40
3.5
  0
CIRCLE
  5
C7
330
47E
100
AcDbEntity
  8
PATTERN_FILL
  6
Continuous
 62
     7
100
AcDbCircle
 10
-479.0517742439574
 20
-170.0
 30
0.0
 40
3.5
  0
CIRCLE
  5
C8
330
47E
100
AcDbEntity
  8
PATTERN_FILL
  6
Continuous
 62
     7
100
AcDbCircle
 10
-469.0517742439574
 20
-170.0
 30
0.0
 40
3.5
  0
CIRCLE
  5
C9
330
47E
100
AcDbEntity
  8
PATTERN_FILL
  6
Continuous
 62
     7
100
AcDbCircle
 10
-459.0517742439574
 20
-170.0
 30
0.0
 40
3.5
  0
CIRCLE
  5
CA
330
47E
100
AcDbEntity
  8
PATTERN_FILL
  6
Continuous
 62
     7
100
AcDbCircle
 10
-449.0517742439574
 20
-170.0
 30
0.0
 40
3.5
  0
CIRCLE
  5
CB
330
47E
100
AcDbEntity
  8
PATTERN_FILL
  6
Continuous
 62
     7
100
AcDbCircle
 10
-439.0517742439574
 20
-170.0
 30
0.0
 40
3.5
  0
CIRCLE
  5
CC
330
47E
100
AcDbEntity
  8
PATTERN_FILL
  6
Continuous
 62
     7
100
AcDbCircle
 10
-429.0517742439574
 20
-170.0
 30
0.0
 40
3.5
  0
CIRCLE
  5
CD
330
47E
100
AcDbEntity
  8
PATTERN_FILL
  6
Continuous
 62
     7
100
AcDbCircle
 10
-419.0517742439574
 20
-170.0
 30
0.0
 40
3.5
  0
ARC
  5
CE
330
47E
100
AcDbEntity
  8
PATTERN_FILL
  6
Continuous
 62
     7
100
AcDbCircle
 10
-409.0517742439574
 20
-170.0
 30
0.0
 40
3.49999999999986
100
AcDbArc
 50
26.289520982096
 51
357.7420036789284
  0
ARC
  5
CF
330
47E
100
AcDbEntity
  8
PATTERN_FILL
  6
Continuous
 62
     7
100
AcDbCircle
 10
-639.0517742439576
 20
-80.00000000000003
 30
0.0
 40
3.499999999999825
100
AcDbArc
 50
250.6640108529083
 51
2.494070136496844
  0
ARC
  5
D0
330
47E
100
AcDbEntity
  8
PATTERN_FILL
  6
Continuous
 62
     7
100
AcDbCircle
 10
-649.0517742439575
 20
-90.00000000000005
 30
0.0
 40
3.500000000000067
100
AcDbArc
 50
231.291165481294
 51
32.71305108746543
  0
CIRCLE
  5
D1
330
47E
100
AcDbEntity
  8
PATTERN_FILL
  6
Continuous
 62
     7
100
AcDbCircle
 10
-639.0517742439575
 20
-90.00000000000005
 30
0.0
 40
3.5
  0
CIRCLE
  5
D2
330
47E
100
AcDbEntity
  8
PATTERN_FILL
  6
Continuous
 62
     7
100
AcDbCircle
 10
-629.0517742439575
 20
-90.00000000000005
 30
0.0
 40
3.5
  0
CIRCLE
  5
D3
330
47E
100
AcDbEntity
  8
PATTERN_FILL
  6
Continuous
 62
     7
100
AcDbCircle
 10
-619.0517742439575
 20
-90.00000000000005
 30
0.0
 40
3.5
  0
CIRCLE
  5
D4
330
47E
100
AcDbEntity
  8
PATTERN_FILL
  6
Continuous
 62
     7
100
AcDbCircle
 10
-609.0517742439575
 20
-90.00000000000005
 30
0.0
 40
3.5
  0
CIRCLE
  5
D5
330
47E
100
AcDbEntity
  8
PATTERN_FILL
  6
Continuous
 62
     7
100
AcDbCircle
 10
-599.0517742439575
 20
-90.00000000000005
 30
0.0
 40
3.5
  0
CIRCLE
  5
D6
330
47E
100
AcDbEntity
  8
PATTERN_FILL
  6
Continuous
 62
     7
100
AcDbCircle
 10
-589.0517742439575
 20
-90.00000000000005
 30
0.0
 40
3.5
  0
CIRCLE
  5
D7
330
47E
100
AcDbEntity
  8
PATTERN_FILL
  6
Continuous
 62
     7
100
AcDbCircle
 10
-579.0517742439575
 20
-90.00000000000005
 30
0.0
 40
3.5
  0
ARC
  5
D8
330
47E
100
AcDbEntity
  8
PATTERN_FILL
  6
Continuous
 62
     7
100
AcDbCircle
 10
-659.0517742439576
 20
-100.0
 30
0.0
 40
3.499999999999676
100
AcDbArc
 50
235.7109144392046
 51
39.24771091081837
  0
CIRCLE
  5
D9
330
47E
100
AcDbEntity
  8
PATTERN_FILL
  6
Continuous
 62
     7
100
AcDbCircle
 10
-649.0517742439575
 20
-100.0
 30
0.0
 40
3.5
  0
CIRCLE
  5
DA
330
47E
100
AcDbEntity
  8
PATTERN_FILL
  6
Continuous
 62
     7
100
AcDbCircle
 10
-639.0517742439575
 20
-100.0
 30
0.0
 40
3.5
  0
CIRCLE
  5
DB
330
47E
100
AcDbEntity
  8
PATTERN_FILL
  6
Continuous
 62
     7
100
AcDbCircle
 10
-629.0517742439575
 20
-100.0
 30
0.0
 40
3.5
  0
CIRCLE
  5
DC
330
47E
100
AcDbEntity
  8
PATTERN_FILL
  6
Continuous
 62
     7
100
AcDbCircle
 10
-619.0517742439575
 20
-100.0
 30
0.0
 40
3.5
  0
CIRCLE
  5
DD
330
47E
100
AcDbEntity
  8
PATTERN_FILL
  6
Continuous
 62
     7
100
AcDbCircle
 10
-609.0517742439575
 20
-100.0
 30
0.0
 40
3.5
  0
CIRCLE
  5
DE
330
47E
100
AcDbEntity
  8
PATTERN_FILL
  6
Continuous
 62
     7
100
AcDbCircle
 10
-599.0517742439575
 20
-100.0
 30
0.0
 40
3.5
  0
CIRCLE
  5
DF
330
47E
100
AcDbEntity
  8
PATTERN_FILL
  6
Continuous
 62
     7
100
AcDbCircle
 10
-589.0517742439575
 20
-100.0
 30
0.0
 40
3.5
  0
CIRCLE
  5
E0
330
47E
100
AcDbEntity
  8
PATTERN_FILL
  6
Continuous
 62
     7
100
AcDbCircle
 10
-579.0517742439575
 20
-100.0
 30
0.0
 40
3.5
  0
ARC
  5
E1
330
47E
100
AcDbEntity
  8
PATTERN_FILL
  6
Continuous
 62
     7
100
AcDbCircle
 10
-669.0517742439575
 20
-110.0
 30
0.0
 40
3.499999999999979
100
AcDbArc
 50
263.3544674306239
 51
22.46889551444352
  0
CIRCLE
  5
E2
330
47E
100
AcDbEntity
  8
PATTERN_FILL
  6
Continuous
 62
     7
100
AcDbCircle
 10
-659.0517742439575
 20
-110.0
 30
0.0
 40
3.5
  0
CIRCLE
  5
E3
330
47E
100
AcDbEntity
  8
PATTERN_FILL
  6
Continuous
 62
     7
100
AcDbCircle
 10
-649.0517742439575
 20
-110.0
 30
0.0
 40
3.5
  0
CIRCLE
  5
E4
330
47E
100
AcDbEntity
  8
PATTERN_FILL
  6
Continuous
 62
     7
100
AcDbCircle
 10
-639.0517742439575
 20
-110.0
 30
0.0
 40
3.5
  0
CIRCLE
  5
E5
330
47E
100
AcDbEntity
  8
PATTERN_FILL
  6
Continuous
 62
     7
100
AcDbCircle
 10
-629.0517742439575
 20
-110.0
 30
0.0
 40
3.5
  0
CIRCLE
  5
E6
330
47E
100
AcDbEntity
  8
PATTERN_FILL
  6
Continuous
 62
     7
100
AcDbCircle
 10
-619.0517742439575
 20
-110.0
 30
0.0
 40
3.5
  0
CIRCLE
  5
E7
330
47E
100
AcDbEntity
  8
PATTERN_FILL
  6
Continuous
 62
     7
100
AcDbCircle
 10
-609.0517742439575
 20
-110.0
 30
0.0
 40
3.5
  0
CIRCLE
  5
E8
330
47E
100
AcDbEntity
  8
PATTERN_FILL
  6
Continuous
 62
     7
100
AcDbCircle
 10
-599.0517742439575
 20
-110.0
 30
0.0
 40
3.5
  0
CIRCLE
  5
E9
330
47E
100
AcDbEntity
  8
PATTERN_FILL
  6
Continuous
 62
     7
100
AcDbCircle
 10
-589.0517742439575
 20
-110.0
 30
0.0
 40
3.5
  0
CIRCLE
  5
EA
330
47E
100
AcDbEntity
  8
PATTERN_FILL
  6
Continuous
 62
     7
100
AcDbCircle
 10
-579.0517742439575
 20
-110.0
 30
0.0
 40
3.5
  0
CIRCLE
  5
EB
330
47E
100
AcDbEntity
  8
PATTERN_FILL
  6
Continuous
 62
     7
100
AcDbCircle
 10
-669.0517742439575
 20
-120.0
 30
0.0
 40
3.5
  0
CIRCLE
  5
EC
330
47E
100
AcDbEntity
  8
PATTERN_FILL
  6
Continuous
 62
     7
100
AcDbCircle
 10
-659.0517742439575
 20
-120.0
 30
0.0
 40
3.5
  0
CIRCLE
  5
ED
330
47E
100
AcDbEntity
  8
PATTERN_FILL
  6
Continuous
 62
     7
100
AcDbCircle
 10
-649.0517742439575
 20
-120.0
 30
0.0
 40
3.5
  0
CIRCLE
  5
EE
330
47E
100
AcDbEntity
  8
PATTERN_FILL
  6
Continuous
 62
     7
100
AcDbCircle
 10
-639.0517742439575
 20
-120.0
 30
0.0
 40
3.5
  0
CIRCLE
  5
EF
330
47E
100
AcDbEntity
  8
PATTERN_FILL
  6
Continuous
 62
     7
100
AcDbCircle
 10
-629.0517742439575
 20
-120.0
 30
0.0
 40
3.5
  0
CIRCLE
  5
F0
330
47E
100
AcDbEntity
  8
PATTERN_FILL
  6
Continuous
 62
     7
100
AcDbCircle
 10
-619.0517742439575
 20
-120.0
 30
0.0
 40
3.5
  0
CIRCLE
  5
F1
330
47E
100
AcDbEntity
  8
PATTERN_FILL
  6
Continuous
 62
     7
100
AcDbCircle
 10
-609.0517742439575
 20
-120.0
 30
0.0
 40
3.5
  0
CIRCLE
  5
F2
330
47E
100
AcDbEntity
  8
PATTERN_FILL
  6
Continuous
 62
     7
100
AcDbCircle
 10
-599.0517742439575
 20
-120.0
 30
0.0
 40
3.5
  0
CIRCLE
  5
F3
330
47E
100
AcDbEntity
  8
PATTERN_FILL
  6
Continuous
 62
     7
100
AcDbCircle
 10
-589.0517742439575
 20
-120.0
 30
0.0
 40
3.5
  0
CIRCLE
  5
F4
330
47E
100
AcDbEntity
  8
PATTERN_FILL
  6
Continuous
 62
     7
100
AcDbCircle
 10
-579.0517742439575
 20
-120.0
 30
0.0
 40
3.5
  0
ARC
  5
F5
330
47E
100
AcDbEntity
  8
PATTERN_FILL
  6
Continuous
 62
     7
100
AcDbCircle
 10
-679.0517742439576
 20
-130.0
 30
0.0
 40
3.499999999999756
100
AcDbArc
 50
230.8901593559165
 51
72.15744211307837
  0
CIRCLE
  5
F6
330
47E
100
AcDbEntity
  8
PATTERN_FILL
  6
Continuous
 62
     7
100
AcDbCircle
 10
-669.0517742439575
 20
-130.0
 30
0.0
 40
3.500000000000056
  0
CIRCLE
  5
F7
330
47E
100
AcDbEntity
  8
PATTERN_FILL
  6
Continuous
 62
     7
100
AcDbCircle
 10
-659.0517742439575
 20
-130.0
 30
0.0
 40
3.500000000000056
  0
CIRCLE
  5
F8
330
47E
100
AcDbEntity
  8
PATTERN_FILL
  6
Continuous
 62
     7
100
AcDbCircle
 10
-649.0517742439575
 20
-130.0
 30
0.0
 40
3.500000000000056
  0
CIRCLE
  5
F9
330
47E
100
AcDbEntity
  8
PATTERN_FILL
  6
Continuous
 62
     7
100
AcDbCircle
 10
-639.0517742439575
 20
-130.0
 30
0.0
 40
3.500000000000056
  0
CIRCLE
  5
FA
330
47E
100
AcDbEntity
  8
PATTERN_FILL
  6
Continuous
 62
     7
100
AcDbCircle
 10
-629.0517742439575
 20
-130.0
 30
0.0
 40
3.500000000000056
  0
CIRCLE
  5
FB
330
47E
100
AcDbEntity
  8
PATTERN_FILL
  6
Continuous
 62
     7
100
AcDbCircle
 10
-619.0517742439575
 20
-130.0
 30
0.0
 40
3.500000000000056
  0
CIRCLE
  5
FC
330
47E
100
AcDbEntity
  8
PATTERN_FILL
  6
Continuous
 62
     7
100
AcDbCircle
 10
-609.0517742439575
 20
-130.0
 30
0.0
 40
3.500000000000056
  0
CIRCLE
  5
FD
330
47E
100
AcDbEntity
  8
PATTERN_FILL
  6
Continuous
 62
     7
100
AcDbCircle
 10
-599.0517742439575
 20
-130.0
 30
0.0
 40
3.500000000000056
  0
CIRCLE
  5
FE
330
47E
100
AcDbEntity
  8
PATTERN_FILL
  6
Continuous
 62
     7
100
AcDbCircle
 10
-589.0517742439575
 20
-130.0
 30
0.0
 40
3.500000000000056
  0
CIRCLE
  5
FF
330
47E
100
AcDbEntity
  8
PATTERN_FILL
  6
Continuous
 62
     7
100
AcDbCircle
 10
-579.0517742439575
 20
-130.0
 30
0.0
 40
3.500000000000056
  0
CIRCLE
  5
100
330
47E
100
AcDbEntity
  8
PATTERN_FILL
  6
Continuous
 62
     7
100
AcDbCircle
 10
-679.0517742439575
 20
-140.0
 30
0.0
 40
3.5
  0
CIRCLE
  5
101
330
47E
100
AcDbEntity
  8
PATTERN_FILL
  6
Continuous
 62
     7
100
AcDbCircle
 10
-669.0517742439575
 20
-140.0
 30
0.0
 40
3.5
  0
CIRCLE
  5
102
330
47E
100
AcDbEntity
  8
PATTERN_FILL
  6
Continuous
 62
     7
100
AcDbCircle
 10
-659.0517742439575
 20
-140.0
 30
0.0
 40
3.5
  0
CIRCLE
  5
103
330
47E
100
AcDbEntity
  8
PATTERN_FILL
  6
Continuous
 62
     7
100
AcDbCircle
 10
-649.0517742439575
 20
-140.0
 30
0.0
 40
3.5
  0
CIRCLE
  5
104
330
47E
100
AcDbEntity
  8
PATTERN_FILL
  6
Continuous
 62
     7
100
AcDbCircle
 10
-639.0517742439575
 20
-140.0
 30
0.0
 40
3.5
  0
CIRCLE
  5
105
330
47E
100
AcDbEntity
  8
PATTERN_FILL
  6
Continuous
 62
     7
100
AcDbCircle
 10
-629.0517742439575
 20
-140.0
 30
0.0
 40
3.5
  0
CIRCLE
  5
106
330
47E
100
AcDbEntity
  8
PATTERN_FILL
  6
Continuous
 62
     7
100
AcDbCircle
 10
-619.0517742439575
 20
-140.0
 30
0.0
 40
3.5
  0
CIRCLE
  5
107
330
47E
100
AcDbEntity
  8
PATTERN_FILL
  6
Continuous
 62
     7
100
AcDbCircle
 10
-609.0517742439575
 20
-140.0
 30
0.0
 40
3.5
  0
CIRCLE
  5
108
330
47E
100
AcDbEntity
  8
PATTERN_FILL
  6
Continuous
 62
     7
100
AcDbCircle
 10
-599.0517742439575
 20
-140.0
 30
0.0
 40
3.5
  0
CIRCLE
  5
109
330
47E
100
AcDbEntity
  8
PATTERN_FILL
  6
Continuous
 62
     7
100
AcDbCircle
 10
-589.0517742439575
 20
-140.0
 30
0.0
 40
3.5
  0
CIRCLE
  5
10A
330
47E
100
AcDbEntity
  8
PATTERN_FILL
  6
Continuous
 62
     7
100
AcDbCircle
 10
-579.0517742439575
 20
-140.0
 30
0.0
 40
3.5
  0
ARC
  5
10B
330
47E
100
AcDbEntity
  8
PATTERN_FILL
  6
Continuous
 62
     7
100
AcDbCircle
 10
-689.0517742439572
 20
-150.0
 30
0.0
 40
3.500000000000251
100
AcDbArc
 50
255.2916949403152
 51
65.15333762295035
  0
CIRCLE
  5
10C
330
47E
100
AcDbEntity
  8
PATTERN_FILL
  6
Continuous
 62
     7
100
AcDbCircle
 10
-679.0517742439575
 20
-150.0
 30
0.0
 40
3.5
  0
CIRCLE
  5
10D
330
47E
100
AcDbEntity
  8
PATTERN_FILL
  6
Continuous
 62
     7
100
AcDbCircle
 10
-669.0517742439575
 20
-150.0
 30
0.0
 40
3.5
  0
CIRCLE
  5
10E
330
47E
100
AcDbEntity
  8
PATTERN_FILL
  6
Continuous
 62
     7
100
AcDbCircle
 10
-659.0517742439575
 20
-150.0
 30
0.0
 40
3.5
  0
CIRCLE
  5
10F
330
47E
100
AcDbEntity
  8
PATTERN_FILL
  6
Continuous
 62
     7
100
AcDbCircle
 10
-649.0517742439575
 20
-150.0
 30
0.0
 40
3.5
  0
CIRCLE
  5
110
330
47E
100
AcDbEntity
  8
PATTERN_FILL
  6
Continuous
 62
     7
100
AcDbCircle
 10
-639.0517742439575
 20
-150.0
 30
0.0
 40
3.5
  0
CIRCLE
  5
111
330
47E
100
AcDbEntity
  8
PATTERN_FILL
  6
Continuous
 62
     7
100
AcDbCircle
 10
-629.0517742439575
 20
-150.0
 30
0.0
 40
3.5
  0
CIRCLE
  5
112
330
47E
100
AcDbEntity
  8
PATTERN_FILL
  6
Continuous
 62
     7
100
AcDbCircle
 10
-619.0517742439575
 20
-150.0
 30
0.0
 40
3.5
  0
CIRCLE
  5
113
330
47E
100
AcDbEntity
  8
PATTERN_FILL
  6
Continuous
 62
     7
100
AcDbCircle
 10
-609.0517742439575
 20
-150.0
 30
0.0
 40
3.5
  0
CIRCLE
  5
114
330
47E
100
AcDbEntity
  8
PATTERN_FILL
  6
Continuous
 62
     7
100
AcDbCircle
 10
-599.0517742439575
 20
-150.0
 30
0.0
 40
3.5
  0
CIRCLE
  5
115
330
47E
100
AcDbEntity
  8
PATTERN_FILL
  6
Continuous
 62
     7
100
AcDbCircle
 10
-589.0517742439575
 20
-150.0
 30
0.0
 40
3.5
  0
CIRCLE
  5
116
330
47E
100
AcDbEntity
  8
PATTERN_FILL
  6
Continuous
 62
     7
100
AcDbCircle
 10
-579.0517742439575
 20
-150.0
 30
0.0
 40
3.5
  0
ARC
  5
117
330
47E
100
AcDbEntity
  8
PATTERN_FILL
  6
Continuous
 62
     7
100
AcDbCircle
 10
-689.0517742439575
 20
-160.0
 30
0.0
 40
3.500000000000069
100
AcDbArc
 50
200.9779292817814
 51
126.924970910204
  0
CIRCLE
  5
118
330
47E
100
AcDbEntity
  8
PATTERN_FILL
  6
Continuous
 62
     7
100
AcDbCircle
 10
-679.0517742439575
 20
-160.0
 30
0.0
 40
3.5
  0
CIRCLE
  5
119
330
47E
100
AcDbEntity
  8
PATTERN_FILL
  6
Continuous
 62
     7
100
AcDbCircle
 10
-669.0517742439575
 20
-160.0
 30
0.0
 40
3.5
  0
CIRCLE
  5
11A
330
47E
100
AcDbEntity
  8
PATTERN_FILL
  6
Continuous
 62
     7
100
AcDbCircle
 10
-659.0517742439575
 20
-160.0
 30
0.0
 40
3.5
  0
CIRCLE
  5
11B
330
47E
100
AcDbEntity
  8
PATTERN_FILL
  6
Continuous
 62
     7
100
AcDbCircle
 10
-649.0517742439575
 20
-160.0
 30
0.0
 40
3.5
  0
CIRCLE
  5
11C
330
47E
100
AcDbEntity
  8
PATTERN_FILL
  6
Continuous
 62
     7
100
AcDbCircle
 10
-639.0517742439575
 20
-160.0
 30
0.0
 40
3.5
  0
CIRCLE
  5
11D
330
47E
100
AcDbEntity
  8
PATTERN_FILL
  6
Continuous
 62
     7
100
AcDbCircle
 10
-629.0517742439575
 20
-160.0
 30
0.0
 40
3.5
  0
CIRCLE
  5
11E
330
47E
100
AcDbEntity
  8
PATTERN_FILL
  6
Continuous
 62
     7
100
AcDbCircle
 10
-619.0517742439575
 20
-160.0
 30
0.0
 40
3.5
  0
CIRCLE
  5
11F
330
47E
100
AcDbEntity
  8
PATTERN_FILL
  6
Continuous
 62
     7
100
AcDbCircle
 10
-609.0517742439575
 20
-160.0
 30
0.0
 40
3.5
  0
CIRCLE
  5
120
330
47E
100
AcDbEntity
  8
PATTERN_FILL
  6
Continuous
 62
     7
100
AcDbCircle
 10
-599.0517742439575
 20
-160.0
 30
0.0
 40
3.5
  0
CIRCLE
  5
121
330
47E
100
AcDbEntity
  8
PATTERN_FILL
  6
Continuous
 62
     7
100
AcDbCircle
 10
-589.0517742439575
 20
-160.0
 30
0.0
 40
3.5
  0
CIRCLE
  5
122
330
47E
100
AcDbEntity
  8
PATTERN_FILL
  6
Continuous
 62
     7
100
AcDbCircle
 10
-579.0517742439575
 20
-160.0
 30
0.0
 40
3.5
  0
CIRCLE
  5
123
330
47E
100
AcDbEntity
  8
PATTERN_FILL
  6
Continuous
 62
     7
100
AcDbCircle
 10
-689.0517742439575
 20
-170.0
 30
0.0
 40
3.5
  0
CIRCLE
  5
124
330
47E
100
AcDbEntity
  8
PATTERN_FILL
  6
Continuous
 62
     7
100
AcDbCircle
 10
-679.0517742439575
 20
-170.0
 30
0.0
 40
3.5
  0
CIRCLE
  5
125
330
47E
100
AcDbEntity
  8
PATTERN_FILL
  6
Continuous
 62
     7
100
AcDbCircle
 10
-669.0517742439575
 20
-170.0
 30
0.0
 40
3.5
  0
CIRCLE
  5
126
330
47E
100
AcDbEntity
  8
PATTERN_FILL
  6
Continuous
 62
     7
100
AcDbCircle
 10
-659.0517742439575
 20
-170.0
 30
0.0
 40
3.5
  0
CIRCLE
  5
127
330
47E
100
AcDbEntity
  8
PATTERN_FILL
  6
Continuous
 62
     7
100
AcDbCircle
 10
-649.0517742439575
 20
-170.0
 30
0.0
 40
3.5
  0
CIRCLE
  5
128
330
47E
100
AcDbEntity
  8
PATTERN_FILL
  6
Continuous
 62
     7
100
AcDbCircle
 10
-639.0517742439575
 20
-170.0
 30
0.0
 40
3.5
  0
CIRCLE
  5
129
330
47E
100
AcDbEntity
  8
PATTERN_FILL
  6
Continuous
 62
     7
100
AcDbCircle
 10
-629.0517742439575
 20
-170.0
 30
0.0
 40
3.5
  0
CIRCLE
  5
12A
330
47E
100
AcDbEntity
  8
PATTERN_FILL
  6
Continuous
 62
     7
100
AcDbCircle
 10
-619.0517742439575
 20
-170.0
 30
0.0
 40
3.5
  0
CIRCLE
  5
12B
330
47E
100
AcDbEntity
  8
PATTERN_FILL
  6
Continuous
 62
     7
100
AcDbCircle
 10
-609.0517742439575
 20
-170.0
 30
0.0
 40
3.5
  0
CIRCLE
  5
12C
330
47E
100
AcDbEntity
  8
PATTERN_FILL
  6
Continuous
 62
     7
100
AcDbCircle
 10
-599.0517742439575
 20
-170.0
 30
0.0
 40
3.5
  0
CIRCLE
  5
12D
330
47E
100
AcDbEntity
  8
PATTERN_FILL
  6
Continuous
 62
     7
100
AcDbCircle
 10
-589.0517742439575
 20
-170.0
 30
0.0
 40
3.5
  0
CIRCLE
  5
12E
330
47E
100
AcDbEntity
  8
PATTERN_FILL
  6
Continuous
 62
     7
100
AcDbCircle
 10
-579.0517742439575
 20
-170.0
 30
0.0
 40
3.5
  0
CIRCLE
  5
12F
330
47E
100
AcDbEntity
  8
PATTERN_FILL
  6
Continuous
 62
     7
100
AcDbCircle
 10
-569.0517742439575
 20
-90.00000000000005
 30
0.0
 40
3.5
  0
CIRCLE
  5
130
330
47E
100
AcDbEntity
  8
PATTERN_FILL
  6
Continuous
 62
     7
100
AcDbCircle
 10
-559.0517742439574
 20
-90.00000000000005
 30
0.0
 40
3.5
  0
CIRCLE
  5
131
330
47E
100
AcDbEntity
  8
PATTERN_FILL
  6
Continuous
 62
     7
100
AcDbCircle
 10
-549.0517742439574
 20
-90.00000000000005
 30
0.0
 40
3.5
  0
CIRCLE
  5
132
330
47E
100
AcDbEntity
  8
PATTERN_FILL
  6
Continuous
 62
     7
100
AcDbCircle
 10
-539.0517742439574
 20
-90.00000000000005
 30
0.0
 40
3.5
  0
CIRCLE
  5
133
330
47E
100
AcDbEntity
  8
PATTERN_FILL
  6
Continuous
 62
     7
100
AcDbCircle
 10
-569.0517742439575
 20
-100.0
 30
0.0
 40
3.5
  0
CIRCLE
  5
134
330
47E
100
AcDbEntity
  8
PATTERN_FILL
  6
Continuous
 62
     7
100
AcDbCircle
 10
-559.0517742439574
 20
-100.0
 30
0.0
 40
3.5
  0
CIRCLE
  5
135
330
47E
100
AcDbEntity
  8
PATTERN_FILL
  6
Continuous
 62
     7
100
AcDbCircle
 10
-549.0517742439574
 20
-100.0
 30
0.0
 40
3.5
  0
CIRCLE
  5
136
330
47E
100
AcDbEntity
  8
PATTERN_FILL
  6
Continuous
 62
     7
100
AcDbCircle
 10
-539.0517742439574
 20
-100.0
 30
0.0
 40
3.5
  0
CIRCLE
  5
137
330
47E
100
AcDbEntity
  8
PATTERN_FILL
  6
Continuous
 62
     7
100
AcDbCircle
 10
-569.0517742439575
 20
-110.0
 30
0.0
 40
3.5
  0
CIRCLE
  5
138
330
47E
100
AcDbEntity
  8
PATTERN_FILL
  6
Continuous
 62
     7
100
AcDbCircle
 10
-559.0517742439574
 20
-110.0
 30
0.0
 40
3.5
  0
CIRCLE
  5
139
330
47E
100
AcDbEntity
  8
PATTERN_FILL
  6
Continuous
 62
     7
100
AcDbCircle
 10
-549.0517742439574
 20
-110.0
 30
0.0
 40
3.5
  0
CIRCLE
  5
13A
330
47E
100
AcDbEntity
  8
PATTERN_FILL
  6
Continuous
 62
     7
100
AcDbCircle
 10
-539.0517742439574
 20
-110.0
 30
0.0
 40
3.5
  0
CIRCLE
  5
13B
330
47E
100
AcDbEntity
  8
PATTERN_FILL
  6
Continuous
 62
     7
100
AcDbCircle
 10
-569.0517742439575
 20
-120.0
 30
0.0
 40
3.5
  0
CIRCLE
  5
13C
330
47E
100
AcDbEntity
  8
PATTERN_FILL
  6
Continuous
 62
     7
100
AcDbCircle
 10
-559.0517742439574
 20
-120.0
 30
0.0
 40
3.5
  0
CIRCLE
  5
13D
330
47E
100
AcDbEntity
  8
PATTERN_FILL
  6
Continuous
 62
     7
100
AcDbCircle
 10
-549.0517742439574
 20
-120.0
 30
0.0
 40
3.5
  0
CIRCLE
  5
13E
330
47E
100
AcDbEntity
  8
PATTERN_FILL
  6
Continuous
 62
     7
100
AcDbCircle
 10
-539.0517742439574
 20
-120.0
 30
0.0
 40
3.5
  0
CIRCLE
  5
13F
330
47E
100
AcDbEntity
  8
PATTERN_FILL
  6
Continuous
 62
     7
100
AcDbCircle
 10
-569.0517742439575
 20
-130.0
 30
0.0
 40
3.500000000000056
  0
CIRCLE
  5
140
330
47E
100
AcDbEntity
  8
PATTERN_FILL
  6
Continuous
 62
     7
100
AcDbCircle
 10
-559.0517742439574
 20
-130.0
 30
0.0
 40
3.500000000000056
  0
CIRCLE
  5
141
330
47E
100
AcDbEntity
  8
PATTERN_FILL
  6
Continuous
 62
     7
100
AcDbCircle
 10
-549.0517742439574
 20
-130.0
 30
0.0
 40
3.500000000000056
  0
CIRCLE
  5
142
330
47E
100
AcDbEntity
  8
PATTERN_FILL
  6
Continuous
 62
     7
100
AcDbCircle
 10
-539.0517742439574
 20
-130.0
 30
0.0
 40
3.500000000000056
  0
CIRCLE
  5
143
330
47E
100
AcDbEntity
  8
PATTERN_FILL
  6
Continuous
 62
     7
100
AcDbCircle
 10
-569.0517742439575
 20
-140.0
 30
0.0
 40
3.5
  0
CIRCLE
  5
144
330
47E
100
AcDbEntity
  8
PATTERN_FILL
  6
Continuous
 62
     7
100
AcDbCircle
 10
-559.0517742439574
 20
-140.0
 30
0.0
 40
3.5
  0
CIRCLE
  5
145
330
47E
100
AcDbEntity
  8
PATTERN_FILL
  6
Continuous
 62
     7
100
AcDbCircle
 10
-549.0517742439574
 20
-140.0
 30
0.0
 40
3.5
  0
CIRCLE
  5
146
330
47E
100
AcDbEntity
  8
PATTERN_FILL
  6
Continuous
 62
     7
100
AcDbCircle
 10
-539.0517742439574
 20
-140.0
 30
0.0
 40
3.5
  0
CIRCLE
  5
147
330
47E
100
AcDbEntity
  8
PATTERN_FILL
  6
Continuous
 62
     7
100
AcDbCircle
 10
-569.0517742439575
 20
-150.0
 30
0.0
 40
3.5
  0
CIRCLE
  5
148
330
47E
100
AcDbEntity
  8
PATTERN_FILL
  6
Continuous
 62
     7
100
AcDbCircle
 10
-559.0517742439574
 20
-150.0
 30
0.0
 40
3.5
  0
CIRCLE
  5
149
330
47E
100
AcDbEntity
  8
PATTERN_FILL
  6
Continuous
 62
     7
100
AcDbCircle
 10
-549.0517742439574
 20
-150.0
 30
0.0
 40
3.5
  0
CIRCLE
  5
14A
330
47E
100
AcDbEntity
  8
PATTERN_FILL
  6
Continuous
 62
     7
100
AcDbCircle
 10
-539.0517742439574
 20
-150.0
 30
0.0
 40
3.5
  0
CIRCLE
  5
14B
330
47E
100
AcDbEntity
  8
PATTERN_FILL
  6
Continuous
 62
     7
100
AcDbCircle
 10
-569.0517742439575
 20
-160.0
 30
0.0
 40
3.5
  0
CIRCLE
  5
14C
330
47E
100
AcDbEntity
  8
PATTERN_FILL
  6
Continuous
 62
     7
100
AcDbCircle
 10
-559.0517742439574
 20
-160.0
 30
0.0
 40
3.5
  0
CIRCLE
  5
14D
330
47E
100
AcDbEntity
  8
PATTERN_FILL
  6
Continuous
 62
     7
100
AcDbCircle
 10
-549.0517742439574
 20
-160.0
 30
0.0
 40
3.5
  0
CIRCLE
  5
14E
330
47E
100
AcDbEntity
  8
PATTERN_FILL
  6
Continuous
 62
     7
100
AcDbCircle
 10
-539.0517742439574
 20
-160.0
 30
0.0
 40
3.5
  0
CIRCLE
  5
14F
330
47E
100
AcDbEntity
  8
PATTERN_FILL
  6
Continuous
 62
     7
100
AcDbCircle
 10
-569.0517742439575
 20
-170.0
 30
0.0
 40
3.5
  0
CIRCLE
  5
150
330
47E
100
AcDbEntity
  8
PATTERN_FILL
  6
Continuous
 62
     7
100
AcDbCircle
 10
-559.0517742439574
 20
-170.0
 30
0.0
 40
3.5
  0
CIRCLE
  5
151
330
47E
100
AcDbEntity
  8
PATTERN_FILL
  6
Continuous
 62
     7
100
AcDbCircle
 10
-549.0517742439574
 20
-170.0
 30
0.0
 40
3.5
  0
CIRCLE
  5
152
330
47E
100
AcDbEntity
  8
PATTERN_FILL
  6
Continuous
 62
     7
100
AcDbCircle
 10
-539.0517742439574
 20
-170.0
 30
0.0
 40
3.5
  0
CIRCLE
  5
153
330
47E
100
AcDbEntity
  8
PATTERN_FILL
  6
Continuous
 62
     7
100
AcDbCircle
 10
-529.0517742439574
 20
-60.00000000000002
 30
0.0
 40
3.5
  0
CIRCLE
  5
154
330
47E
100
AcDbEntity
  8
PATTERN_FILL
  6
Continuous
 62
     7
100
AcDbCircle
 10
-519.0517742439574
 20
-60.00000000000002
 30
0.0
 40
3.5
  0
ARC
  5
155
330
47E
100
AcDbEntity
  8
PATTERN_FILL
  6
Continuous
 62
     7
100
AcDbCircle
 10
-509.0517742439574
 20
-60.00000000000002
 30
0.0
 40
3.499999999999865
100
AcDbArc
 50
136.4637256869207
 51
10.92921609273942
  0
ARC
  5
156
330
47E
100
AcDbEntity
  8
PATTERN_FILL
  6
Continuous
 62
     7
100
AcDbCircle
 10
-499.0517742439574
 20
-60.00000000000002
 30
0.0
 40
3.500000000000019
100
AcDbArc
 50
185.6703808093949
 51
314.3351173785274
  0
CIRCLE
  5
157
330
47E
100
AcDbEntity
  8
PATTERN_FILL
  6
Continuous
 62
     7
100
AcDbCircle
 10
-529.0517742439574
 20
-70.00000000000001
 30
0.0
 40
3.5
  0
CIRCLE
  5
158
330
47E
100
AcDbEntity
  8
PATTERN_FILL
  6
Continuous
 62
     7
100
AcDbCircle
 10
-519.0517742439574
 20
-70.00000000000001
 30
0.0
 40
3.5
  0
CIRCLE
  5
159
330
47E
100
AcDbEntity
  8
PATTERN_FILL
  6
Continuous
 62
     7
100
AcDbCircle
 10
-509.0517742439574
 20
-70.00000000000001
 30
0.0
 40
3.5
  0
CIRCLE
  5
15A
330
47E
100
AcDbEntity
  8
PATTERN_FILL
  6
Continuous
 62
     7
100
AcDbCircle
 10
-499.0517742439574
 20
-70.00000000000001
 30
0.0
 40
3.5
  0
CIRCLE
  5
15B
330
47E
100
AcDbEntity
  8
PATTERN_FILL
  6
Continuous
 62
     7
100
AcDbCircle
 10
-489.0517742439574
 20
-70.0
 30
0.0
 40
3.5
  0
ARC
  5
15C
330
47E
100
AcDbEntity
  8
PATTERN_FILL
  6
Continuous
 62
     7
100
AcDbCircle
 10
-479.0517742439574
 20
-70.0
 30
0.0
 40
3.499999999999999
100
AcDbArc
 50
161.9171148413215
 51
320.8353828464884
  0
CIRCLE
  5
15D
330
47E
100
AcDbEntity
  8
PATTERN_FILL
  6
Continuous
 62
     7
100
AcDbCircle
 10
-529.0517742439574
 20
-80.00000000000003
 30
0.0
 40
3.5
  0
CIRCLE
  5
15E
330
47E
100
AcDbEntity
  8
PATTERN_FILL
  6
Continuous
 62
     7
100
AcDbCircle
 10
-519.0517742439574
 20
-80.00000000000003
 30
0.0
 40
3.5
  0
CIRCLE
  5
15F
330
47E
100
AcDbEntity
  8
PATTERN_FILL
  6
Continuous
 62
     7
100
AcDbCircle
 10
-509.0517742439574
 20
-80.00000000000003
 30
0.0
 40
3.5
  0
CIRCLE
  5
160
330
47E
100
AcDbEntity
  8
PATTERN_FILL
  6
Continuous
 62
     7
100
AcDbCircle
 10
-499.0517742439574
 20
-80.00000000000003
 30
0.0
 40
3.5
  0
CIRCLE
  5
161
330
47E
100
AcDbEntity
  8
PATTERN_FILL
  6
Continuous
 62
     7
100
AcDbCircle
 10
-489.0517742439574
 20
-80.0
 30
0.0
 40
3.5
  0
CIRCLE
  5
162
330
47E
100
AcDbEntity
  8
PATTERN_FILL
  6
Continuous
 62
     7
100
AcDbCircle
 10
-479.0517742439574
 20
-80.0
 30
0.0
 40
3.5
  0
ARC
  5
163
330
47E
100
AcDbEntity
  8
PATTERN_FILL
  6
Continuous
 62
     7
100
AcDbCircle
 10
-469.0517742439574
 20
-80.0
 30
0.0
 40
3.500000000000091
100
AcDbArc
 50
94.64219577291896
 51
17.3530763579363
  0
ARC
  5
164
330
47E
100
AcDbEntity
  8
PATTERN_FILL
  6
Continuous
 62
     7
100
AcDbCircle
 10
-599.0517742439575
 20
-60.00000000000002
 30
0.0
 40
3.499999999999892
100
AcDbArc
 50
213.9274474877014
 51
4.690393643484469
  0
ARC
  5
165
330
47E
100
AcDbEntity
  8
PATTERN_FILL
  6
Continuous
 62
     7
100
AcDbCircle
 10
-589.0517742439575
 20
-60.00000000000002
 30
0.0
 40
3.500000000000171
100
AcDbArc
 50
158.1145235436858
 51
53.05743436136314
  0
CIRCLE
  5
166
330
47E
100
AcDbEntity
  8
PATTERN_FILL
  6
Continuous
 62
     7
100
AcDbCircle
 10
-579.0517742439575
 20
-60.00000000000002
 30
0.0
 40
3.5
  0
ARC
  5
167
330
47E
100
AcDbEntity
  8
PATTERN_FILL
  6
Continuous
 62
     7
100
AcDbCircle
 10
-619.0517742439575
 20
-70.00000000000001
 30
0.0
 40
3.500000000000084
100
AcDbArc
 50
203.7541934284554
 51
32.19738161790461
  0
CIRCLE
  5
168
330
47E
100
AcDbEntity
  8
PATTERN_FILL
  6
Continuous
 62
     7
100
AcDbCircle
 10
-609.0517742439575
 20
-70.00000000000001
 30
0.0
 40
3.5
  0
CIRCLE
  5
169
330
47E
100
AcDbEntity
  8
PATTERN_FILL
  6
Continuous
 62
     7
100
AcDbCircle
 10
-599.0517742439575
 20
-70.00000000000001
 30
0.0
 40
3.5
  0
CIRCLE
  5
16A
330
47E
100
AcDbEntity
  8
PATTERN_FILL
  6
Continuous
 62
     7
100
AcDbCircle
 10
-589.0517742439575
 20
-70.00000000000001
 30
0.0
 40
3.5
  0
CIRCLE
  5
16B
330
47E
100
AcDbEntity
  8
PATTERN_FILL
  6
Continuous
 62
     7
100
AcDbCircle
 10
-579.0517742439575
 20
-70.00000000000001
 30
0.0
 40
3.5
  0
CIRCLE
  5
16C
330
47E
100
AcDbEntity
  8
PATTERN_FILL
  6
Continuous
 62
     7
100
AcDbCircle
 10
-629.0517742439575
 20
-80.00000000000003
 30
0.0
 40
3.5
  0
CIRCLE
  5
16D
330
47E
100
AcDbEntity
  8
PATTERN_FILL
  6
Continuous
 62
     7
100
AcDbCircle
 10
-619.0517742439575
 20
-80.00000000000003
 30
0.0
 40
3.5
  0
CIRCLE
  5
16E
330
47E
100
AcDbEntity
  8
PATTERN_FILL
  6
Continuous
 62
     7
100
AcDbCircle
 10
-609.0517742439575
 20
-80.00000000000003
 30
0.0
 40
3.5
  0
CIRCLE
  5
16F
330
47E
100
AcDbEntity
  8
PATTERN_FILL
  6
Continuous
 62
     7
100
AcDbCircle
 10
-599.0517742439575
 20
-80.00000000000003
 30
0.0
 40
3.5
  0
CIRCLE
  5
170
330
47E
100
AcDbEntity
  8
PATTERN_FILL
  6
Continuous
 62
     7
100
AcDbCircle
 10
-589.0517742439575
 20
-80.00000000000003
 30
0.0
 40
3.5
  0
CIRCLE
  5
171
330
47E
100
AcDbEntity
  8
PATTERN_FILL
  6
Continuous
 62
     7
100
AcDbCircle
 10
-579.0517742439575
 20
-80.00000000000003
 30
0.0
 40
3.5
  0
CIRCLE
  5
172
330
47E
100
AcDbEntity
  8
PATTERN_FILL
  6
Continuous
 62
     7
100
AcDbCircle
 10
-569.0517742439575
 20
-60.00000000000002
 30
0.0
 40
3.5
  0
CIRCLE
  5
173
330
47E
100
AcDbEntity
  8
PATTERN_FILL
  6
Continuous
 62
     7
100
AcDbCircle
 10
-559.0517742439574
 20
-60.00000000000002
 30
0.0
 40
3.5
  0
CIRCLE
  5
174
330
47E
100
AcDbEntity
  8
PATTERN_FILL
  6
Continuous
 62
     7
100
AcDbCircle
 10
-549.0517742439574
 20
-60.00000000000002
 30
0.0
 40
3.5
  0
CIRCLE
  5
175
330
47E
100
AcDbEntity
  8
PATTERN_FILL
  6
Continuous
 62
     7
100
AcDbCircle
 10
-539.0517742439574
 20
-60.00000000000002
 30
0.0
 40
3.5
  0
CIRCLE
  5
176
330
47E
100
AcDbEntity
  8
PATTERN_FILL
  6
Continuous
 62
     7
100
AcDbCircle
 10
-569.0517742439575
 20
-70.00000000000001
 30
0.0
 40
3.5
  0
CIRCLE
  5
177
330
47E
100
AcDbEntity
  8
PATTERN_FILL
  6
Continuous
 62
     7
100
AcDbCircle
 10
-559.0517742439574
 20
-70.00000000000001
 30
0.0
 40
3.5
  0
CIRCLE
  5
178
330
47E
100
AcDbEntity
  8
PATTERN_FILL
  6
Continuous
 62
     7
100
AcDbCircle
 10
-549.0517742439574
 20
-70.00000000000001
 30
0.0
 40
3.5
  0
CIRCLE
  5
179
330
47E
100
AcDbEntity
  8
PATTERN_FILL
  6
Continuous
 62
     7
100
AcDbCircle
 10
-539.0517742439574
 20
-70.00000000000001
 30
0.0
 40
3.5
  0
CIRCLE
  5
17A
330
47E
100
AcDbEntity
  8
PATTERN_FILL
  6
Continuous
 62
     7
100
AcDbCircle
 10
-569.0517742439575
 20
-80.00000000000003
 30
0.0
 40
3.5
  0
CIRCLE
  5
17B
330
47E
100
AcDbEntity
  8
PATTERN_FILL
  6
Continuous
 62
     7
100
AcDbCircle
 10
-559.0517742439574
 20
-80.00000000000003
 30
0.0
 40
3.5
  0
CIRCLE
  5
17C
330
47E
100
AcDbEntity
  8
PATTERN_FILL
  6
Continuous
 62
     7
100
AcDbCircle
 10
-549.0517742439574
 20
-80.00000000000003
 30
0.0
 40
3.5
  0
CIRCLE
  5
17D
330
47E
100
AcDbEntity
  8
PATTERN_FILL
  6
Continuous
 62
     7
100
AcDbCircle
 10
-539.0517742439574
 20
-80.00000000000003
 30
0.0
 40
3.5
  0
CIRCLE
  5
17E
330
47E
100
AcDbEntity
  8
PATTERN_FILL
  6
Continuous
 62
     7
100
AcDbCircle
 10
-529.0517742439574
 20
-180.0
 30
0.0
 40
3.5
  0
CIRCLE
  5
17F
330
47E
100
AcDbEntity
  8
PATTERN_FILL
  6
Continuous
 62
     7
100
AcDbCircle
 10
-519.0517742439574
 20
-180.0
 30
0.0
 40
3.5
  0
CIRCLE
  5
180
330
47E
100
AcDbEntity
  8
PATTERN_FILL
  6
Continuous
 62
     7
100
AcDbCircle
 10
-509.0517742439574
 20
-180.0
 30
0.0
 40
3.5
  0
CIRCLE
  5
181
330
47E
100
AcDbEntity
  8
PATTERN_FILL
  6
Continuous
 62
     7
100
AcDbCircle
 10
-499.0517742439574
 20
-180.0
 30
0.0
 40
3.5
  0
CIRCLE
  5
182
330
47E
100
AcDbEntity
  8
PATTERN_FILL
  6
Continuous
 62
     7
100
AcDbCircle
 10
-489.0517742439574
 20
-180.0
 30
0.0
 40
3.5
  0
CIRCLE
  5
183
330
47E
100
AcDbEntity
  8
PATTERN_FILL
  6
Continuous
 62
     7
100
AcDbCircle
 10
-479.0517742439574
 20
-180.0
 30
0.0
 40
3.5
  0
CIRCLE
  5
184
330
47E
100
AcDbEntity
  8
PATTERN_FILL
  6
Continuous
 62
     7
100
AcDbCircle
 10
-469.0517742439574
 20
-180.0
 30
0.0
 40
3.5
  0
CIRCLE
  5
185
330
47E
100
AcDbEntity
  8
PATTERN_FILL
  6
Continuous
 62
     7
100
AcDbCircle
 10
-459.0517742439574
 20
-180.0
 30
0.0
 40
3.5
  0
CIRCLE
  5
186
330
47E
100
AcDbEntity
  8
PATTERN_FILL
  6
Continuous
 62
     7
100
AcDbCircle
 10
-449.0517742439574
 20
-180.0
 30
0.0
 40
3.5
  0
CIRCLE
  5
187
330
47E
100
AcDbEntity
  8
PATTERN_FILL
  6
Continuous
 62
     7
100
AcDbCircle
 10
-439.0517742439574
 20
-180.0
 30
0.0
 40
3.5
  0
CIRCLE
  5
188
330
47E
100
AcDbEntity
  8
PATTERN_FILL
  6
Continuous
 62
     7
100
AcDbCircle
 10
-429.0517742439574
 20
-180.0
 30
0.0
 40
3.5
  0
CIRCLE
  5
189
330
47E
100
AcDbEntity
  8
PATTERN_FILL
  6
Continuous
 62
     7
100
AcDbCircle
 10
-419.0517742439574
 20
-180.0
 30
0.0
 40
3.5
  0
CIRCLE
  5
18A
330
47E
100
AcDbEntity
  8
PATTERN_FILL
  6
Continuous
 62
     7
100
AcDbCircle
 10
-409.0517742439574
 20
-180.0
 30
0.0
 40
3.5
  0
CIRCLE
  5
18B
330
47E
100
AcDbEntity
  8
PATTERN_FILL
  6
Continuous
 62
     7
100
AcDbCircle
 10
-529.0517742439574
 20
-190.0
 30
0.0
 40
3.5
  0
CIRCLE
  5
18C
330
47E
100
AcDbEntity
  8
PATTERN_FILL
  6
Continuous
 62
     7
100
AcDbCircle
 10
-519.0517742439574
 20
-190.0
 30
0.0
 40
3.5
  0
CIRCLE
  5
18D
330
47E
100
AcDbEntity
  8
PATTERN_FILL
  6
Continuous
 62
     7
100
AcDbCircle
 10
-509.0517742439574
 20
-190.0
 30
0.0
 40
3.5
  0
CIRCLE
  5
18E
330
47E
100
AcDbEntity
  8
PATTERN_FILL
  6
Continuous
 62
     7
100
AcDbCircle
 10
-499.0517742439574
 20
-190.0
 30
0.0
 40
3.5
  0
CIRCLE
  5
18F
330
47E
100
AcDbEntity
  8
PATTERN_FILL
  6
Continuous
 62
     7
100
AcDbCircle
 10
-489.0517742439574
 20
-190.0
 30
0.0
 40
3.5
  0
CIRCLE
  5
190
330
47E
100
AcDbEntity
  8
PATTERN_FILL
  6
Continuous
 62
     7
100
AcDbCircle
 10
-479.0517742439574
 20
-190.0
 30
0.0
 40
3.5
  0
CIRCLE
  5
191
330
47E
100
AcDbEntity
  8
PATTERN_FILL
  6
Continuous
 62
     7
100
AcDbCircle
 10
-469.0517742439574
 20
-190.0
 30
0.0
 40
3.5
  0
CIRCLE
  5
192
330
47E
100
AcDbEntity
  8
PATTERN_FILL
  6
Continuous
 62
     7
100
AcDbCircle
 10
-459.0517742439574
 20
-190.0
 30
0.0
 40
3.5
  0
CIRCLE
  5
193
330
47E
100
AcDbEntity
  8
PATTERN_FILL
  6
Continuous
 62
     7
100
AcDbCircle
 10
-449.0517742439574
 20
-190.0
 30
0.0
 40
3.5
  0
CIRCLE
  5
194
330
47E
100
AcDbEntity
  8
PATTERN_FILL
  6
Continuous
 62
     7
100
AcDbCircle
 10
-439.0517742439574
 20
-190.0
 30
0.0
 40
3.5
  0
CIRCLE
  5
195
330
47E
100
AcDbEntity
  8
PATTERN_FILL
  6
Continuous
 62
     7
100
AcDbCircle
 10
-429.0517742439574
 20
-190.0
 30
0.0
 40
3.5
  0
CIRCLE
  5
196
330
47E
100
AcDbEntity
  8
PATTERN_FILL
  6
Continuous
 62
     7
100
AcDbCircle
 10
-419.0517742439574
 20
-190.0
 30
0.0
 40
3.5
  0
CIRCLE
  5
197
330
47E
100
AcDbEntity
  8
PATTERN_FILL
  6
Continuous
 62
     7
100
AcDbCircle
 10
-409.0517742439574
 20
-190.0
 30
0.0
 40
3.5
  0
CIRCLE
  5
198
330
47E
100
AcDbEntity
  8
PATTERN_FILL
  6
Continuous
 62
     7
100
AcDbCircle
 10
-529.0517742439574
 20
-200.0
 30
0.0
 40
3.5
  0
CIRCLE
  5
199
330
47E
100
AcDbEntity
  8
PATTERN_FILL
  6
Continuous
 62
     7
100
AcDbCircle
 10
-519.0517742439574
 20
-200.0
 30
0.0
 40
3.5
  0
CIRCLE
  5
19A
330
47E
100
AcDbEntity
  8
PATTERN_FILL
  6
Continuous
 62
     7
100
AcDbCircle
 10
-509.0517742439574
 20
-200.0
 30
0.0
 40
3.5
  0
CIRCLE
  5
19B
330
47E
100
AcDbEntity
  8
PATTERN_FILL
  6
Continuous
 62
     7
100
AcDbCircle
 10
-499.0517742439574
 20
-200.0
 30
0.0
 40
3.5
  0
CIRCLE
  5
19C
330
47E
100
AcDbEntity
  8
PATTERN_FILL
  6
Continuous
 62
     7
100
AcDbCircle
 10
-489.0517742439574
 20
-200.0
 30
0.0
 40
3.5
  0
CIRCLE
  5
19D
330
47E
100
AcDbEntity
  8
PATTERN_FILL
  6
Continuous
 62
     7
100
AcDbCircle
 10
-479.0517742439574
 20
-200.0
 30
0.0
 40
3.5
  0
CIRCLE
  5
19E
330
47E
100
AcDbEntity
  8
PATTERN_FILL
  6
Continuous
 62
     7
100
AcDbCircle
 10
-469.0517742439574
 20
-200.0
 30
0.0
 40
3.5
  0
CIRCLE
  5
19F
330
47E
100
AcDbEntity
  8
PATTERN_FILL
  6
Continuous
 62
     7
100
AcDbCircle
 10
-459.0517742439574
 20
-200.0
 30
0.0
 40
3.5
  0
CIRCLE
  5
1A0
330
47E
100
AcDbEntity
  8
PATTERN_FILL
  6
Continuous
 62
     7
100
AcDbCircle
 10
-449.0517742439574
 20
-200.0
 30
0.0
 40
3.5
  0
CIRCLE
  5
1A1
330
47E
100
AcDbEntity
  8
PATTERN_FILL
  6
Continuous
 62
     7
100
AcDbCircle
 10
-439.0517742439574
 20
-200.0
 30
0.0
 40
3.5
  0
CIRCLE
  5
1A2
330
47E
100
AcDbEntity
  8
PATTERN_FILL
  6
Continuous
 62
     7
100
AcDbCircle
 10
-429.0517742439574
 20
-200.0
 30
0.0
 40
3.5
  0
CIRCLE
  5
1A3
330
47E
100
AcDbEntity
  8
PATTERN_FILL
  6
Continuous
 62
     7
100
AcDbCircle
 10
-419.0517742439574
 20
-200.0
 30
0.0
 40
3.5
  0
CIRCLE
  5
1A4
330
47E
100
AcDbEntity
  8
PATTERN_FILL
  6
Continuous
 62
     7
100
AcDbCircle
 10
-409.0517742439574
 20
-200.0
 30
0.0
 40
3.5
  0
CIRCLE
  5
1A5
330
47E
100
AcDbEntity
  8
PATTERN_FILL
  6
Continuous
 62
     7
100
AcDbCircle
 10
-469.0517742439574
 20
-210.0
 30
0.0
 40
3.5
  0
CIRCLE
  5
1A6
330
47E
100
AcDbEntity
  8
PATTERN_FILL
  6
Continuous
 62
     7
100
AcDbCircle
 10
-459.0517742439574
 20
-210.0
 30
0.0
 40
3.5
  0
CIRCLE
  5
1A7
330
47E
100
AcDbEntity
  8
PATTERN_FILL
  6
Continuous
 62
     7
100
AcDbCircle
 10
-449.0517742439574
 20
-210.0
 30
0.0
 40
3.5
  0
CIRCLE
  5
1A8
330
47E
100
AcDbEntity
  8
PATTERN_FILL
  6
Continuous
 62
     7
100
AcDbCircle
 10
-439.0517742439574
 20
-210.0
 30
0.0
 40
3.5
  0
CIRCLE
  5
1A9
330
47E
100
AcDbEntity
  8
PATTERN_FILL
  6
Continuous
 62
     7
100
AcDbCircle
 10
-429.0517742439574
 20
-210.0
 30
0.0
 40
3.5
  0
CIRCLE
  5
1AA
330
47E
100
AcDbEntity
  8
PATTERN_FILL
  6
Continuous
 62
     7
100
AcDbCircle
 10
-469.0517742439574
 20
-220.0
 30
0.0
 40
3.5
  0
CIRCLE
  5
1AB
330
47E
100
AcDbEntity
  8
PATTERN_FILL
  6
Continuous
 62
     7
100
AcDbCircle
 10
-459.0517742439574
 20
-220.0
 30
0.0
 40
3.5
  0
CIRCLE
  5
1AC
330
47E
100
AcDbEntity
  8
PATTERN_FILL
  6
Continuous
 62
     7
100
AcDbCircle
 10
-449.0517742439574
 20
-220.0
 30
0.0
 40
3.5
  0
CIRCLE
  5
1AD
330
47E
100
AcDbEntity
  8
PATTERN_FILL
  6
Continuous
 62
     7
100
AcDbCircle
 10
-439.0517742439574
 20
-220.0
 30
0.0
 40
3.5
  0
CIRCLE
  5
1AE
330
47E
100
AcDbEntity
  8
PATTERN_FILL
  6
Continuous
 62
     7
100
AcDbCircle
 10
-429.0517742439574
 20
-220.0
 30
0.0
 40
3.5
  0
ARC
  5
1AF
330
47E
100
AcDbEntity
  8
PATTERN_FILL
  6
Continuous
 62
     7
100
AcDbCircle
 10
-469.0517742439574
 20
-230.0
 30
0.0
 40
3.499999999999801
100
AcDbArc
 50
331.8933406201548
 51
149.4388846161256
  0
CIRCLE
  5
1B0
330
47E
100
AcDbEntity
  8
PATTERN_FILL
  6
Continuous
 62
     7
100
AcDbCircle
 10
-459.0517742439574
 20
-230.0
 30
0.0
 40
3.5
  0
CIRCLE
  5
1B1
330
47E
100
AcDbEntity
  8
PATTERN_FILL
  6
Continuous
 62
     7
100
AcDbCircle
 10
-449.0517742439574
 20
-230.0
 30
0.0
 40
3.5
  0
CIRCLE
  5
1B2
330
47E
100
AcDbEntity
  8
PATTERN_FILL
  6
Continuous
 62
     7
100
AcDbCircle
 10
-439.0517742439574
 20
-230.0
 30
0.0
 40
3.5
  0
CIRCLE
  5
1B3
330
47E
100
AcDbEntity
  8
PATTERN_FILL
  6
Continuous
 62
     7
100
AcDbCircle
 10
-429.0517742439574
 20
-230.0
 30
0.0
 40
3.5
  0
ARC
  5
1B4
330
47E
100
AcDbEntity
  8
PATTERN_FILL
  6
Continuous
 62
     7
100
AcDbCircle
 10
-449.0517742439574
 20
-240.0
 30
0.0
 40
3.499999999999861
100
AcDbArc
 50
270.1428337881281
 51
193.1563655581671
  0
CIRCLE
  5
1B5
330
47E
100
AcDbEntity
  8
PATTERN_FILL
  6
Continuous
 62
     7
100
AcDbCircle
 10
-439.0517742439574
 20
-240.0
 30
0.0
 40
3.5
  0
CIRCLE
  5
1B6
330
47E
100
AcDbEntity
  8
PATTERN_FILL
  6
Continuous
 62
     7
100
AcDbCircle
 10
-429.0517742439574
 20
-240.0
 30
0.0
 40
3.5
  0
CIRCLE
  5
1B7
330
47E
100
AcDbEntity
  8
PATTERN_FILL
  6
Continuous
 62
     7
100
AcDbCircle
 10
-419.0517742439574
 20
-210.0
 30
0.0
 40
3.5
  0
CIRCLE
  5
1B8
330
47E
100
AcDbEntity
  8
PATTERN_FILL
  6
Continuous
 62
     7
100
AcDbCircle
 10
-409.0517742439574
 20
-210.0
 30
0.0
 40
3.5
  0
CIRCLE
  5
1B9
330
47E
100
AcDbEntity
  8
PATTERN_FILL
  6
Continuous
 62
     7
100
AcDbCircle
 10
-419.0517742439574
 20
-220.0
 30
0.0
 40
3.5
  0
CIRCLE
  5
1BA
330
47E
100
AcDbEntity
  8
PATTERN_FILL
  6
Continuous
 62
     7
100
AcDbCircle
 10
-409.0517742439574
 20
-220.0
 30
0.0
 40
3.5
  0
CIRCLE
  5
1BB
330
47E
100
AcDbEntity
  8
PATTERN_FILL
  6
Continuous
 62
     7
100
AcDbCircle
 10
-419.0517742439574
 20
-230.0
 30
0.0
 40
3.5
  0
ARC
  5
1BC
330
47E
100
AcDbEntity
  8
PATTERN_FILL
  6
Continuous
 62
     7
100
AcDbCircle
 10
-409.0517742439574
 20
-230.0
 30
0.0
 40
3.500000000000009
100
AcDbArc
 50
2.2579963210716
 51
333.710479017904
  0
CIRCLE
  5
1BD
330
47E
100
AcDbEntity
  8
PATTERN_FILL
  6
Continuous
 62
     7
100
AcDbCircle
 10
-419.0517742439574
 20
-240.0
 30
0.0
 40
3.5
  0
ARC
  5
1BE
330
47E
100
AcDbEntity
  8
PATTERN_FILL
  6
Continuous
 62
     7
100
AcDbCircle
 10
-409.0517742439574
 20
-240.0
 30
0.0
 40
3.500000000000054
100
AcDbArc
 50
58.4524088400495
 51
269.8605397010389
  0
ARC
  5
1BF
330
47E
100
AcDbEntity
  8
PATTERN_FILL
  6
Continuous
 62
     7
100
AcDbCircle
 10
-439.0517742439574
 20
-250.0
 30
0.0
 40
3.499999999999962
100
AcDbArc
 50
284.7108611936276
 51
167.1998337970057
  0
CIRCLE
  5
1C0
330
47E
100
AcDbEntity
  8
PATTERN_FILL
  6
Continuous
 62
     7
100
AcDbCircle
 10
-429.0517742439574
 20
-250.0
 30
0.0
 40
3.5
  0
CIRCLE
  5
1C1
330
47E
100
AcDbEntity
  8
PATTERN_FILL
  6
Continuous
 62
     7
100
AcDbCircle
 10
-419.0517742439574
 20
-250.0
 30
0.0
 40
3.5
  0
ARC
  5
1C2
330
47E
100
AcDbEntity
  8
PATTERN_FILL
  6
Continuous
 62
     7
100
AcDbCircle
 10
-409.0517742439574
 20
-250.0
 30
0.0
 40
3.499999999999759
100
AcDbArc
 50
106.947623580395
 51
213.9890941492377
  0
ARC
  5
1C3
330
47E
100
AcDbEntity
  8
PATTERN_FILL
  6
Continuous
 62
     7
100
AcDbCircle
 10
-429.0517742439457
 20
-259.99999999999
 30
0.0
 40
3.500000000010003
100
AcDbArc
 50
269.6272019767626
 51
170.8572408460224
  0
ARC
  5
1C4
330
47E
100
AcDbEntity
  8
PATTERN_FILL
  6
Continuous
 62
     7
100
AcDbCircle
 10
-419.0517742439571
 20
-260.0
 30
0.0
 40
3.499999999999732
100
AcDbArc
 50
344.1258062557362
 51
326.6400362731536
  0
ARC
  5
1C5
330
47E
100
AcDbEntity
  8
PATTERN_FILL
  6
Continuous
 62
     7
100
AcDbCircle
 10
-419.0517742439574
 20
-270.0
 30
0.0
 40
3.500000000000082
100
AcDbArc
 50
78.84681187052874
 51
224.8986177118115
  0
CIRCLE
  5
1C6
330
47E
100
AcDbEntity
  8
PATTERN_FILL
  6
Continuous
 62
     7
100
AcDbCircle
 10
-509.0517742439574
 20
-210.0
 30
0.0
 40
3.5
  0
CIRCLE
  5
1C7
330
47E
100
AcDbEntity
  8
PATTERN_FILL
  6
Continuous
 62
     7
100
AcDbCircle
 10
-499.0517742439574
 20
-210.0
 30
0.0
 40
3.5
  0
CIRCLE
  5
1C8
330
47E
100
AcDbEntity
  8
PATTERN_FILL
  6
Continuous
 62
     7
100
AcDbCircle
 10
-489.0517742439574
 20
-210.0
 30
0.0
 40
3.5
  0
CIRCLE
  5
1C9
330
47E
100
AcDbEntity
  8
PATTERN_FILL
  6
Continuous
 62
     7
100
AcDbCircle
 10
-479.0517742439574
 20
-210.0
 30
0.0
 40
3.5
  0
ARC
  5
1CA
330
47E
100
AcDbEntity
  8
PATTERN_FILL
  6
Continuous
 62
     7
100
AcDbCircle
 10
-499.0517742439574
 20
-220.0000000000001
 30
0.0
 40
3.500000000000083
100
AcDbArc
 50
29.74783573598673
 51
117.7364256372955
  0
ARC
  5
1CB
330
47E
100
AcDbEntity
  8
PATTERN_FILL
  6
Continuous
 62
     7
100
AcDbCircle
 10
-489.0517742439574
 20
-220.0
 30
0.0
 40
3.500000000000031
100
AcDbArc
 50
329.4248210339067
 51
170.2167994029228
  0
CIRCLE
  5
1CC
330
47E
100
AcDbEntity
  8
PATTERN_FILL
  6
Continuous
 62
     7
100
AcDbCircle
 10
-479.0517742439574
 20
-220.0
 30
0.0
 40
3.5
  0
CIRCLE
  5
1CD
330
47E
100
AcDbEntity
  8
PATTERN_FILL
  6
Continuous
 62
     7
100
AcDbCircle
 10
-629.0517742439575
 20
-180.0000000000001
 30
0.0
 40
3.5
  0
CIRCLE
  5
1CE
330
47E
100
AcDbEntity
  8
PATTERN_FILL
  6
Continuous
 62
     7
100
AcDbCircle
 10
-619.0517742439575
 20
-180.0000000000001
 30
0.0
 40
3.5
  0
CIRCLE
  5
1CF
330
47E
100
AcDbEntity
  8
PATTERN_FILL
  6
Continuous
 62
     7
100
AcDbCircle
 10
-609.0517742439575
 20
-180.0000000000001
 30
0.0
 40
3.5
  0
CIRCLE
  5
1D0
330
47E
100
AcDbEntity
  8
PATTERN_FILL
  6
Continuous
 62
     7
100
AcDbCircle
 10
-599.0517742439575
 20
-180.0000000000001
 30
0.0
 40
3.5
  0
CIRCLE
  5
1D1
330
47E
100
AcDbEntity
  8
PATTERN_FILL
  6
Continuous
 62
     7
100
AcDbCircle
 10
-629.0517742439575
 20
-190.0000000000001
 30
0.0
 40
3.5
  0
CIRCLE
  5
1D2
330
47E
100
AcDbEntity
  8
PATTERN_FILL
  6
Continuous
 62
     7
100
AcDbCircle
 10
-619.0517742439575
 20
-190.0000000000001
 30
0.0
 40
3.5
  0
CIRCLE
  5
1D3
330
47E
100
AcDbEntity
  8
PATTERN_FILL
  6
Continuous
 62
     7
100
AcDbCircle
 10
-609.0517742439575
 20
-190.0000000000001
 30
0.0
 40
3.5
  0
CIRCLE
  5
1D4
330
47E
100
AcDbEntity
  8
PATTERN_FILL
  6
Continuous
 62
     7
100
AcDbCircle
 10
-599.0517742439575
 20
-190.0000000000001
 30
0.0
 40
3.5
  0
CIRCLE
  5
1D5
330
47E
100
AcDbEntity
  8
PATTERN_FILL
  6
Continuous
 62
     7
100
AcDbCircle
 10
-629.0517742439575
 20
-200.0000000000001
 30
0.0
 40
3.5
  0
CIRCLE
  5
1D6
330
47E
100
AcDbEntity
  8
PATTERN_FILL
  6
Continuous
 62
     7
100
AcDbCircle
 10
-619.0517742439575
 20
-200.0000000000001
 30
0.0
 40
3.5
  0
CIRCLE
  5
1D7
330
47E
100
AcDbEntity
  8
PATTERN_FILL
  6
Continuous
 62
     7
100
AcDbCircle
 10
-609.0517742439575
 20
-200.0000000000001
 30
0.0
 40
3.5
  0
CIRCLE
  5
1D8
330
47E
100
AcDbEntity
  8
PATTERN_FILL
  6
Continuous
 62
     7
100
AcDbCircle
 10
-599.0517742439575
 20
-200.0000000000001
 30
0.0
 40
3.5
  0
CIRCLE
  5
1D9
330
47E
100
AcDbEntity
  8
PATTERN_FILL
  6
Continuous
 62
     7
100
AcDbCircle
 10
-629.0517742439575
 20
-210.0000000000001
 30
0.0
 40
3.5
  0
CIRCLE
  5
1DA
330
47E
100
AcDbEntity
  8
PATTERN_FILL
  6
Continuous
 62
     7
100
AcDbCircle
 10
-619.0517742439575
 20
-210.0000000000001
 30
0.0
 40
3.5
  0
CIRCLE
  5
1DB
330
47E
100
AcDbEntity
  8
PATTERN_FILL
  6
Continuous
 62
     7
100
AcDbCircle
 10
-609.0517742439575
 20
-210.0000000000001
 30
0.0
 40
3.5
  0
CIRCLE
  5
1DC
330
47E
100
AcDbEntity
  8
PATTERN_FILL
  6
Continuous
 62
     7
100
AcDbCircle
 10
-599.0517742439575
 20
-210.0000000000001
 30
0.0
 40
3.5
  0
CIRCLE
  5
1DD
330
47E
100
AcDbEntity
  8
PATTERN_FILL
  6
Continuous
 62
     7
100
AcDbCircle
 10
-629.0517742439575
 20
-220.0000000000001
 30
0.0
 40
3.5
  0
CIRCLE
  5
1DE
330
47E
100
AcDbEntity
  8
PATTERN_FILL
  6
Continuous
 62
     7
100
AcDbCircle
 10
-619.0517742439575
 20
-220.0000000000001
 30
0.0
 40
3.5
  0
CIRCLE
  5
1DF
330
47E
100
AcDbEntity
  8
PATTERN_FILL
  6
Continuous
 62
     7
100
AcDbCircle
 10
-609.0517742439575
 20
-220.0000000000001
 30
0.0
 40
3.5
  0
CIRCLE
  5
1E0
330
47E
100
AcDbEntity
  8
PATTERN_FILL
  6
Continuous
 62
     7
100
AcDbCircle
 10
-599.0517742439575
 20
-220.0000000000001
 30
0.0
 40
3.5
  0
CIRCLE
  5
1E1
330
47E
100
AcDbEntity
  8
PATTERN_FILL
  6
Continuous
 62
     7
100
AcDbCircle
 10
-589.0517742439575
 20
-180.0000000000001
 30
0.0
 40
3.5
  0
CIRCLE
  5
1E2
330
47E
100
AcDbEntity
  8
PATTERN_FILL
  6
Continuous
 62
     7
100
AcDbCircle
 10
-579.0517742439575
 20
-180.0
 30
0.0
 40
3.5
  0
CIRCLE
  5
1E3
330
47E
100
AcDbEntity
  8
PATTERN_FILL
  6
Continuous
 62
     7
100
AcDbCircle
 10
-589.0517742439575
 20
-190.0000000000001
 30
0.0
 40
3.5
  0
CIRCLE
  5
1E4
330
47E
100
AcDbEntity
  8
PATTERN_FILL
  6
Continuous
 62
     7
100
AcDbCircle
 10
-579.0517742439575
 20
-190.0000000000001
 30
0.0
 40
3.5
  0
CIRCLE
  5
1E5
330
47E
100
AcDbEntity
  8
PATTERN_FILL
  6
Continuous
 62
     7
100
AcDbCircle
 10
-589.0517742439575
 20
-200.0000000000001
 30
0.0
 40
3.5
  0
CIRCLE
  5
1E6
330
47E
100
AcDbEntity
  8
PATTERN_FILL
  6
Continuous
 62
     7
100
AcDbCircle
 10
-579.0517742439575
 20
-200.0000000000001
 30
0.0
 40
3.5
  0
CIRCLE
  5
1E7
330
47E
100
AcDbEntity
  8
PATTERN_FILL
  6
Continuous
 62
     7
100
AcDbCircle
 10
-589.0517742439575
 20
-210.0000000000001
 30
0.0
 40
3.5
  0
CIRCLE
  5
1E8
330
47E
100
AcDbEntity
  8
PATTERN_FILL
  6
Continuous
 62
     7
100
AcDbCircle
 10
-579.0517742439575
 20
-210.0000000000001
 30
0.0
 40
3.5
  0
CIRCLE
  5
1E9
330
47E
100
AcDbEntity
  8
PATTERN_FILL
  6
Continuous
 62
     7
100
AcDbCircle
 10
-589.0517742439575
 20
-220.0000000000001
 30
0.0
 40
3.5
  0
CIRCLE
  5
1EA
330
47E
100
AcDbEntity
  8
PATTERN_FILL
  6
Continuous
 62
     7
100
AcDbCircle
 10
-579.0517742439575
 20
-220.0000000000001
 30
0.0
 40
3.5
  0
CIRCLE
  5
1EB
330
47E
100
AcDbEntity
  8
PATTERN_FILL
  6
Continuous
 62
     7
100
AcDbCircle
 10
-569.0517742439575
 20
-180.0
 30
0.0
 40
3.5
  0
CIRCLE
  5
1EC
330
47E
100
AcDbEntity
  8
PATTERN_FILL
  6
Continuous
 62
     7
100
AcDbCircle
 10
-569.0517742439575
 20
-220.0000000000001
 30
0.0
 40
3.5
  0
CIRCLE
  5
1ED
330
47E
100
AcDbEntity
  8
PATTERN_FILL
  6
Continuous
 62
     7
100
AcDbCircle
 10
-569.0517742439575
 20
-190.0000000000001
 30
0.0
 40
3.5
  0
CIRCLE
  5
1EE
330
47E
100
AcDbEntity
  8
PATTERN_FILL
  6
Continuous
 62
     7
100
AcDbCircle
 10
-569.0517742439575
 20
-200.0000000000001
 30
0.0
 40
3.5
  0
CIRCLE
  5
1EF
330
47E
100
AcDbEntity
  8
PATTERN_FILL
  6
Continuous
 62
     7
100
AcDbCircle
 10
-569.0517742439575
 20
-210.0000000000001
 30
0.0
 40
3.5
  0
CIRCLE
  5
1F0
330
47E
100
AcDbEntity
  8
PATTERN_FILL
  6
Continuous
 62
     7
100
AcDbCircle
 10
-559.0517742439574
 20
-180.0
 30
0.0
 40
3.5
  0
CIRCLE
  5
1F1
330
47E
100
AcDbEntity
  8
PATTERN_FILL
  6
Continuous
 62
     7
100
AcDbCircle
 10
-549.0517742439574
 20
-180.0
 30
0.0
 40
3.5
  0
CIRCLE
  5
1F2
330
47E
100
AcDbEntity
  8
PATTERN_FILL
  6
Continuous
 62
     7
100
AcDbCircle
 10
-539.0517742439574
 20
-180.0
 30
0.0
 40
3.5
  0
ARC
  5
1F3
330
47E
100
AcDbEntity
  8
PATTERN_FILL
  6
Continuous
 62
     7
100
AcDbCircle
 10
-539.0517742439576
 20
-190.0000000000004
 30
0.0
 40
3.499999999999654
100
AcDbArc
 50
225.6136526746115
 51
171.7867892982543
  0
ARC
  5
1F4
330
47E
100
AcDbEntity
  8
PATTERN_FILL
  6
Continuous
 62
     7
100
AcDbCircle
 10
-539.0517742439574
 20
-200.0
 30
0.0
 40
3.500000000000138
100
AcDbArc
 50
225.6136526746141
 51
134.3863473253859
  0
ARC
  5
1F5
330
47E
100
AcDbEntity
  8
PATTERN_FILL
  6
Continuous
 62
     7
100
AcDbCircle
 10
-539.0517742439572
 20
-210.0
 30
0.0
 40
3.500000000000375
100
AcDbArc
 50
188.2132107017373
 51
134.3863473253885
  0
ARC
  5
1F6
330
47E
100
AcDbEntity
  8
PATTERN_FILL
  6
Continuous
 62
     7
100
AcDbCircle
 10
-559.0517742439574
 20
-190.0000000000001
 30
0.0
 40
3.499999999999933
100
AcDbArc
 50
8.213210701739287
 51
279.0705075151216
  0
ARC
  5
1F7
330
47E
100
AcDbEntity
  8
PATTERN_FILL
  6
Continuous
 62
     7
100
AcDbCircle
 10
-549.0517742439574
 20
-190.0
 30
0.0
 40
3.499999999999924
100
AcDbArc
 50
8.213210701738367
 51
171.7867892982616
  0
ARC
  5
1F8
330
47E
100
AcDbEntity
  8
PATTERN_FILL
  6
Continuous
 62
     7
100
AcDbCircle
 10
-559.0517742439574
 20
-200.0000000000001
 30
0.0
 40
3.500000000000106
100
AcDbArc
 50
80.92949248487839
 51
279.0705075151216
  0
ARC
  5
1F9
330
47E
100
AcDbEntity
  8
PATTERN_FILL
  6
Continuous
 62
     7
100
AcDbCircle
 10
-549.0517742439574
 20
-210.0
 30
0.0
 40
3.50000000000015
100
AcDbArc
 50
188.2132107017378
 51
351.7867892982617
  0
ARC
  5
1FA
330
47E
100
AcDbEntity
  8
PATTERN_FILL
  6
Continuous
 62
     7
100
AcDbCircle
 10
-529.0517742439574
 20
-210.0
 30
0.0
 40
3.499999999999996
100
AcDbArc
 50
314.3061365096396
 51
236.5374484605597
  0
ARC
  5
1FB
330
47E
100
AcDbEntity
  8
PATTERN_FILL
  6
Continuous
 62
     7
100
AcDbCircle
 10
-519.0517742439574
 20
-210.0
 30
0.0
 40
3.499999999999916
100
AcDbArc
 50
287.5748933302689
 51
237.6145221332041
  0
CIRCLE
  5
1FC
330
47E
100
AcDbEntity
  8
PATTERN_FILL
  6
Continuous
 62
     7
100
AcDbCircle
 10
-609.0517742439575
 20
-230.0000000000001
 30
0.0
 40
3.5
  0
CIRCLE
  5
1FD
330
47E
100
AcDbEntity
  8
PATTERN_FILL
  6
Continuous
 62
     7
100
AcDbCircle
 10
-599.0517742439575
 20
-230.0000000000001
 30
0.0
 40
3.5
  0
CIRCLE
  5
1FE
330
47E
100
AcDbEntity
  8
PATTERN_FILL
  6
Continuous
 62
     7
100
AcDbCircle
 10
-589.0517742439575
 20
-230.0000000000001
 30
0.0
 40
3.5
  0
ARC
  5
1FF
330
47E
100
AcDbEntity
  8
PATTERN_FILL
  6
Continuous
 62
     7
100
AcDbCircle
 10
-579.0517742439575
 20
-230.0000000000001
 30
0.0
 40
3.499999999999825
100
AcDbArc
 50
337.1069107274378
 51
225.3999735794721
  0
CIRCLE
  5
200
330
47E
100
AcDbEntity
  8
PATTERN_FILL
  6
Continuous
 62
     7
100
AcDbCircle
 10
-559.0517742439574
 20
-220.0000000000001
 30
0.0
 40
3.5
  0
ARC
  5
201
330
47E
100
AcDbEntity
  8
PATTERN_FILL
  6
Continuous
 62
     7
100
AcDbCircle
 10
-549.0517742439574
 20
-220.0000000000001
 30
0.0
 40
3.500000000000006
100
AcDbArc
 50
3.25014678096945
 51
231.7149648803992
  0
ARC
  5
202
330
47E
100
AcDbEntity
  8
PATTERN_FILL
  6
Continuous
 62
     7
100
AcDbCircle
 10
-569.0517742439575
 20
-230.0000000000001
 30
0.0
 40
3.499999999999997
100
AcDbArc
 50
23.16387232112037
 51
189.2038747981537
  0
ARC
  5
203
330
47E
100
AcDbEntity
  8
PATTERN_FILL
  6
Continuous
 62
     7
100
AcDbCircle
 10
-699.0517742439575
 20
-180.0000000000001
 30
0.0
 40
3.499999999999976
100
AcDbArc
 50
318.3277016418394
 51
26.38752013742266
  0
CIRCLE
  5
204
330
47E
100
AcDbEntity
  8
PATTERN_FILL
  6
Continuous
 62
     7
100
AcDbCircle
 10
-689.0517742439575
 20
-180.0000000000001
 30
0.0
 40
3.5
  0
CIRCLE
  5
205
330
47E
100
AcDbEntity
  8
PATTERN_FILL
  6
Continuous
 62
     7
100
AcDbCircle
 10
-679.0517742439575
 20
-180.0000000000001
 30
0.0
 40
3.5
  0
CIRCLE
  5
206
330
47E
100
AcDbEntity
  8
PATTERN_FILL
  6
Continuous
 62
     7
100
AcDbCircle
 10
-669.0517742439575
 20
-180.0000000000001
 30
0.0
 40
3.5
  0
CIRCLE
  5
207
330
47E
100
AcDbEntity
  8
PATTERN_FILL
  6
Continuous
 62
     7
100
AcDbCircle
 10
-659.0517742439575
 20
-180.0000000000001
 30
0.0
 40
3.5
  0
CIRCLE
  5
208
330
47E
100
AcDbEntity
  8
PATTERN_FILL
  6
Continuous
 62
     7
100
AcDbCircle
 10
-649.0517742439575
 20
-180.0000000000001
 30
0.0
 40
3.5
  0
CIRCLE
  5
209
330
47E
100
AcDbEntity
  8
PATTERN_FILL
  6
Continuous
 62
     7
100
AcDbCircle
 10
-639.0517742439575
 20
-180.0000000000001
 30
0.0
 40
3.5
  0
CIRCLE
  5
20A
330
47E
100
AcDbEntity
  8
PATTERN_FILL
  6
Continuous
 62
     7
100
AcDbCircle
 10
-679.0517742439575
 20
-190.0000000000001
 30
0.0
 40
3.5
  0
CIRCLE
  5
20B
330
47E
100
AcDbEntity
  8
PATTERN_FILL
  6
Continuous
 62
     7
100
AcDbCircle
 10
-669.0517742439575
 20
-190.0000000000001
 30
0.0
 40
3.5
  0
CIRCLE
  5
20C
330
47E
100
AcDbEntity
  8
PATTERN_FILL
  6
Continuous
 62
     7
100
AcDbCircle
 10
-659.0517742439575
 20
-190.0000000000001
 30
0.0
 40
3.5
  0
CIRCLE
  5
20D
330
47E
100
AcDbEntity
  8
PATTERN_FILL
  6
Continuous
 62
     7
100
AcDbCircle
 10
-649.0517742439575
 20
-190.0000000000001
 30
0.0
 40
3.5
  0
CIRCLE
  5
20E
330
47E
100
AcDbEntity
  8
PATTERN_FILL
  6
Continuous
 62
     7
100
AcDbCircle
 10
-639.0517742439575
 20
-190.0000000000001
 30
0.0
 40
3.5
  0
ARC
  5
20F
330
47E
100
AcDbEntity
  8
PATTERN_FILL
  6
Continuous
 62
     7
100
AcDbCircle
 10
-679.0517742439575
 20
-200.0000000000001
 30
0.0
 40
3.499999999999871
100
AcDbArc
 50
277.9709863452673
 51
173.0450360221046
  0
CIRCLE
  5
210
330
47E
100
AcDbEntity
  8
PATTERN_FILL
  6
Continuous
 62
     7
100
AcDbCircle
 10
-669.0517742439575
 20
-200.0000000000001
 30
0.0
 40
3.5
  0
CIRCLE
  5
211
330
47E
100
AcDbEntity
  8
PATTERN_FILL
  6
Continuous
 62
     7
100
AcDbCircle
 10
-659.0517742439575
 20
-200.0000000000001
 30
0.0
 40
3.5
  0
CIRCLE
  5
212
330
47E
100
AcDbEntity
  8
PATTERN_FILL
  6
Continuous
 62
     7
100
AcDbCircle
 10
-649.0517742439575
 20
-200.0000000000001
 30
0.0
 40
3.5
  0
CIRCLE
  5
213
330
47E
100
AcDbEntity
  8
PATTERN_FILL
  6
Continuous
 62
     7
100
AcDbCircle
 10
-639.0517742439575
 20
-200.0000000000001
 30
0.0
 40
3.5
  0
ARC
  5
214
330
47E
100
AcDbEntity
  8
PATTERN_FILL
  6
Continuous
 62
     7
100
AcDbCircle
 10
-689.0517742439575
 20
-190.0000000000001
 30
0.0
 40
3.500000000000125
100
AcDbArc
 50
285.5478823792158
 51
151.0053518686797
  0
CIRCLE
  5
215
330
47E
100
AcDbEntity
  8
PATTERN_FILL
  6
Continuous
 62
     7
100
AcDbCircle
 10
-659.0517742439575
 20
-210.0000000000001
 30
0.0
 40
3.5
  0
CIRCLE
  5
216
330
47E
100
AcDbEntity
  8
PATTERN_FILL
  6
Continuous
 62
     7
100
AcDbCircle
 10
-649.0517742439575
 20
-210.0000000000001
 30
0.0
 40
3.5
  0
CIRCLE
  5
217
330
47E
100
AcDbEntity
  8
PATTERN_FILL
  6
Continuous
 62
     7
100
AcDbCircle
 10
-639.0517742439575
 20
-210.0000000000001
 30
0.0
 40
3.5
  0
ARC
  5
218
330
47E
100
AcDbEntity
  8
PATTERN_FILL
  6
Continuous
 62
     7
100
AcDbCircle
 10
-669.0517742439575
 20
-210.0000000000001
 30
0.0
 40
3.499999999999882
100
AcDbArc
 50
304.392034698198
 51
161.0546483932769
  0
ARC
  5
219
330
47E
100
AcDbEntity
  8
PATTERN_FILL
  6
Continuous
 62
     7
100
AcDbCircle
 10
-659.0517742439575
 20
-220.0000000000001
 30
0.0
 40
3.500000000000005
100
AcDbArc
 50
357.7842038405958
 51
121.6188553553488
  0
ARC
  5
21A
330
47E
100
AcDbEntity
  8
PATTERN_FILL
  6
Continuous
 62
     7
100
AcDbCircle
 10
-649.0517742439575
 20
-220.0000000000001
 30
0.0
 40
3.500000000000072
100
AcDbArc
 50
272.185460047152
 51
216.1691013229553
  0
CIRCLE
  5
21B
330
47E
100
AcDbEntity
  8
PATTERN_FILL
  6
Continuous
 62
     7
100
AcDbCircle
 10
-639.0517742439575
 20
-220.0000000000001
 30
0.0
 40
3.5
  0
ARC
  5
21C
330
47E
100
AcDbEntity
  8
PATTERN_FILL
  6
Continuous
 62
     7
100
AcDbCircle
 10
-639.0517742439575
 20
-230.0000000000001
 30
0.0
 40
3.499999999999995
100
AcDbArc
 50
22.84314799185608
 51
118.7293227685079
  0
ARC
  5
21D
330
47E
100
AcDbEntity
  8
PATTERN_FILL
  6
Continuous
 62
     7
100
AcDbCircle
 10
-629.0517742439575
 20
-230.0000000000001
 30
0.0
 40
3.499999999999981
100
AcDbArc
 50
336.883603379286
 51
174.2623247598223
  0
ARC
  5
21E
330
47E
100
AcDbEntity
  8
PATTERN_FILL
  6
Continuous
 62
     7
100
AcDbCircle
 10
-619.0517742439575
 20
-230.0000000000001
 30
0.0
 40
3.499999999999961
100
AcDbArc
 50
301.9490720027221
 51
219.1992215735875
  0
TEXT
  5
21F
330
47E
100
AcDbEntity
  8
SPEC
 62
     7
100
AcDbText
 10
-715.5083353519439
 20
1386.654681
 30
0.0
 40
24.4326171875
  1
仕様
 41
0.7
 11
-715.5083353519439
 21
1411.087298187499
 31
0.0
100
AcDbText
 73
     3
  0
LINE
  5
220
330
47E
100
AcDbEntity
  8
SPEC
  6
Continuous
 62
     7
100
AcDbLine
 10
-728.0083353519438
 20
1372.721980999999
 30
0.0
 11
753.241664648056
 21
1372.721980999999
 31
0.0
  0
LINE
  5
221
330
47E
100
AcDbEntity
  8
SPEC
  6
Continuous
 62
     7
100
AcDbLine
 10
-728.0083353519438
 20
1335.221980999999
 30
0.0
 11
753.241664648056
 21
1335.221980999999
 31
0.0
  0
LINE
  5
222
330
47E
100
AcDbEntity
  8
SPEC
  6
Continuous
 62
     7
100
AcDbLine
 10
-728.0083353519438
 20
1185.221980999999
 30
0.0
 11
753.241664648056
 21
1185.221980999999
 31
0.0
  0
LINE
  5
223
330
47E
100
AcDbEntity
  8
SPEC
  6
Continuous
 62
     7
100
AcDbLine
 10
-728.0083353519438
 20
1222.721980999999
 30
0.0
 11
753.241664648056
 21
1222.721980999999
 31
0.0
  0
LINE
  5
224
330
47E
100
AcDbEntity
  8
SPEC
  6
Continuous
 62
     7
100
AcDbLine
 10
-728.0083353519438
 20
1260.221980999999
 30
0.0
 11
753.241664648056
 21
1260.221980999999
 31
0.0
  0
LINE
  5
225
330
47E
100
AcDbEntity
  8
SPEC
  6
Continuous
 62
     7
100
AcDbLine
 10
-728.0083353519438
 20
1147.721981
 30
0.0
 11
753.241664648056
 21
1147.721981
 31
0.0
  0
LINE
  5
226
330
47E
100
AcDbEntity
  8
SPEC
  6
Continuous
 62
     7
100
AcDbLine
 10
-728.0083353519438
 20
1072.721981
 30
0.0
 11
753.241664648056
 21
1072.721981
 31
0.0
  0
LINE
  5
227
330
47E
100
AcDbEntity
  8
SPEC
  6
Continuous
 62
     7
100
AcDbLine
 10
-387.383335351944
 20
1110.221981
 30
0.0
 11
753.241664648056
 21
1110.221981
 31
0.0
  0
LINE
  5
228
330
47E
100
AcDbEntity
  8
SPEC
  6
Continuous
 62
     7
100
AcDbLine
 10
-387.383335351944
 20
1035.221981
 30
0.0
 11
753.241664648056
 21
1035.221981
 31
0.0
  0
LINE
  5
229
330
47E
100
AcDbEntity
  8
SPEC
  6
Continuous
 62
     7
100
AcDbLine
 10
-728.0083353519438
 20
997.7219810000001
 30
0.0
 11
753.241664648056
 21
997.7219810000001
 31
0.0
  0
LINE
  5
22A
330
47E
100
AcDbEntity
  8
SPEC
  6
Continuous
 62
     7
100
AcDbLine
 10
-728.0083353519438
 20
1297.721980999999
 30
0.0
 11
753.241664648056
 21
1297.721980999999
 31
0.0
  0
LINE
  5
22B
330
47E
100
AcDbEntity
  8
SPEC
  6
Continuous
 62
     7
100
AcDbLine
 10
-728.0083353519438
 20
922.7219810000001
 30
0.0
 11
753.241664648056
 21
922.7219810000001
 31
0.0
  0
LINE
  5
22C
330
47E
100
AcDbEntity
  8
SPEC
  6
Continuous
 62
     7
100
AcDbLine
 10
-728.0083353519438
 20
847.7219809999997
 30
0.0
 11
753.241664648056
 21
847.7219809999997
 31
0.0
  0
LINE
  5
22D
330
47E
100
AcDbEntity
  8
SPEC
  6
Continuous
 62
     7
100
AcDbLine
 10
-728.0083353519438
 20
1372.721980999999
 30
0.0
 11
-728.0083353519438
 21
772.721981
 31
0.0
  0
LINE
  5
22E
330
47E
100
AcDbEntity
  8
SPEC
  6
Continuous
 62
     7
100
AcDbLine
 10
-309.258335351944
 20
1372.721980999999
 30
0.0
 11
-309.258335351944
 21
772.721981
 31
0.0
  0
TEXT
  5
22F
330
47E
100
AcDbEntity
  8
SPEC
 62
     7
100
AcDbText
 10
-719.0083353519443
 20
1343.101174777777
 30
0.0
 40
19.0031125
  1
周波数レンジ(-10dB)
 41
0.7
 11
-719.0083353519443
 21
1362.104287277777
 31
0.0
100
AcDbText
 73
     3
  0
TEXT
  5
230
330
47E
100
AcDbEntity
  8
SPEC
 62
     7
100
AcDbText
 10
-300.2583353519448
 20
1343.101174777777
 30
0.0
 40
19.0031125
  1
75Hz～17kHz
 41
0.7
 11
-300.2583353519448
 21
1362.104287277777
 31
0.0
100
AcDbText
 73
     3
  0
LINE
  5
231
330
47E
100
AcDbEntity
  8
SPEC
  6
Continuous
 62
     7
100
AcDbLine
 10
-728.0083353519438
 20
960.2219810000001
 30
0.0
 11
753.241664648056
 21
960.2219810000001
 31
0.0
  0
LINE
  5
232
330
47E
100
AcDbEntity
  8
SPEC
  6
Continuous
 62
     7
100
AcDbLine
 10
-728.0083353519438
 20
885.2219809999997
 30
0.0
 11
753.241664648056
 21
885.2219809999997
 31
0.0
  0
TEXT
  5
233
330
47E
100
AcDbEntity
  8
SPEC
 62
     7
100
AcDbText
 10
-719.0083353519443
 20
1230.601158777777
 30
0.0
 40
19.00314670138889
  1
感度
 41
0.7
 11
-719.0083353519443
 21
1249.604305479166
 31
0.0
100
AcDbText
 73
     3
  0
TEXT
  5
234
330
47E
100
AcDbEntity
  8
SPEC
 62
     7
100
AcDbText
 10
-719.0083353519443
 20
1118.101158777777
 30
0.0
 40
19.00314670138889
  1
トランス・タップ
 41
0.7
 11
-719.0083353519443
 21
1137.104305479166
 31
0.0
100
AcDbText
 73
     3
  0
TEXT
  5
235
330
47E
100
AcDbEntity
  8
SPEC
 62
     7
100
AcDbText
 10
-719.0083353519443
 20
1043.101158777777
 30
0.0
 40
19.00314670138889
  1
ドライバー構成
 41
0.7
 11
-719.0083353519443
 21
1062.104305479166
 31
0.0
100
AcDbText
 73
     3
  0
TEXT
  5
236
330
47E
100
AcDbEntity
  8
SPEC
 62
     7
100
AcDbText
 10
-719.0083353519443
 20
1305.601158777777
 30
0.0
 40
19.00314670138889
  1
カバレージ角(1.5～10kHz平均)
 41
0.7
 11
-719.0083353519443
 21
1324.604305479166
 31
0.0
100
AcDbText
 73
     3
  0
TEXT
  5
237
330
47E
100
AcDbEntity
  8
SPEC
 62
     7
100
AcDbText
 10
-719.0083353519443
 20
1193.101158777777
 30
0.0
 40
19.00314670138889
  1
最大音圧レベル
 41
0.7
 11
-719.0083353519443
 21
1212.104305479166
 31
0.0
100
AcDbText
 73
     3
  0
TEXT
  5
238
330
47E
100
AcDbEntity
  8
SPEC
 62
     7
100
AcDbText
 10
-719.0083353519443
 20
930.6011587777774
 30
0.0
 40
19.00314670138889
  1
端子(入力/ループスルー)
 41
0.7
 11
-719.0083353519443
 21
949.6043054791664
 31
0.0
100
AcDbText
 73
     3
  0
TEXT
  5
239
330
47E
100
AcDbEntity
  8
SPEC
 62
     7
100
AcDbText
 10
-719.0083353519443
 20
1268.101158777777
 30
0.0
 40
19.00314670138889
  1
許容入力(プログラム/ピンク)※ 
 41
0.7
 11
-719.0083353519443
 21
1287.104305479165
 31
0.0
100
AcDbText
 73
     3
  0
TEXT
  5
23A
330
47E
100
AcDbEntity
  8
SPEC
 62
     7
100
AcDbText
 10
-300.2583353519448
 20
930.6011587777774
 30
0.0
 40
19.00314670138889
  1
ユーロブロック
 41
0.7
 11
-300.2583353519448
 21
949.6043054791664
 31
0.0
100
AcDbText
 73
     3
  0
TEXT
  5
23B
330
47E
100
AcDbEntity
  8
SPEC
 62
     7
100
AcDbText
 10
-719.0083353519443
 20
893.1011587777774
 30
0.0
 40
19.00314670138889
  1
寸法(φ×H)
 41
0.7
 11
-719.0083353519443
 21
912.1043054791664
 31
0.0
100
AcDbText
 73
     3
  0
TEXT
  5
23C
330
47E
100
AcDbEntity
  8
SPEC
 62
     7
100
AcDbText
 10
-719.0083353519443
 20
855.6011587777772
 30
0.0
 40
19.00314670138889
  1
質量
 41
0.7
 11
-719.0083353519443
 21
874.6043054791662
 31
0.0
100
AcDbText
 73
     3
  0
TEXT
  5
23D
330
47E
100
AcDbEntity
  8
SPEC
 62
     7
100
AcDbText
 10
-300.2583353519448
 20
893.1011587777774
 30
0.0
 40
19.00314670138889
  1
333×344mm(除突起部) 
 41
0.7
 11
-300.2583353519448
 21
912.1043054791664
 31
0.0
100
AcDbText
 73
     3
  0
TEXT
  5
23E
330
47E
100
AcDbEntity
  8
SPEC
 62
     7
100
AcDbText
 10
-719.0083353519443
 20
1155.601158777777
 30
0.0
 40
19.00314670138889
  1
公称インピーダンス
 41
0.7
 11
-719.0083353519443
 21
1174.604305479166
 31
0.0
100
AcDbText
 73
     3
  0
TEXT
  5
23F
330
47E
100
AcDbEntity
  8
SPEC
 62
     7
100
AcDbText
 10
-300.2583353519448
 20
1080.601158777777
 30
0.0
 40
19.00314670138889
  1
60W、30W、15W、7.5W
 41
0.7
 11
-300.2583353519448
 21
1099.604305479166
 31
0.0
100
AcDbText
 73
     3
  0
TEXT
  5
240
330
47E
100
AcDbEntity
  8
SPEC
 62
     7
100
AcDbText
 10
-719.0083353519443
 20
968.1011587777774
 30
0.0
 40
19.00314670138889
  1
色
 41
0.7
 11
-719.0083353519443
 21
987.1043054791664
 31
0.0
100
AcDbText
 73
     3
  0
TEXT
  5
241
330
47E
100
AcDbEntity
  8
SPEC
 62
     7
100
AcDbText
 10
-300.2583353519448
 20
1305.601158777777
 30
0.0
 40
19.00314670138889
  1
75°(+15°/-20°)
 41
0.7
 11
-300.2583353519448
 21
1324.604305479166
 31
0.0
100
AcDbText
 73
     3
  0
TEXT
  5
242
330
47E
100
AcDbEntity
  8
SPEC
 62
     7
100
AcDbText
 10
-300.2583353519448
 20
1268.101158777777
 30
0.0
 40
19.00314670138889
  1
150W/75W
 41
0.7
 11
-300.2583353519448
 21
1287.104305479165
 31
0.0
100
AcDbText
 73
     3
  0
TEXT
  5
243
330
47E
100
AcDbEntity
  8
SPEC
 62
     7
100
AcDbText
 10
-300.2583353519448
 20
1230.601158777777
 30
0.0
 40
19.00314670138889
  1
93dB SPL
 41
0.7
 11
-300.2583353519448
 21
1249.604305479166
 31
0.0
100
AcDbText
 73
     3
  0
TEXT
  5
244
330
47E
100
AcDbEntity
  8
SPEC
 62
     7
100
AcDbText
 10
-300.2583353519448
 20
1193.101158777777
 30
0.0
 40
19.00314670138889
  1
112dB SPL
 41
0.7
 11
-300.2583353519448
 21
1212.104305479166
 31
0.0
100
AcDbText
 73
     3
  0
TEXT
  5
245
330
47E
100
AcDbEntity
  8
SPEC
 62
     7
100
AcDbText
 10
-300.2583353519448
 20
1155.601158777777
 30
0.0
 40
19.00314670138889
  1
8Ω
 41
0.7
 11
-300.2583353519448
 21
1174.604305479166
 31
0.0
100
AcDbText
 73
     3
  0
TEXT
  5
246
330
47E
100
AcDbEntity
  8
SPEC
 62
     7
100
AcDbText
 10
-300.2583353519448
 20
1043.101158777777
 30
0.0
 40
19.00314670138889
  1
6.5インチ(165mm)
 41
0.7
 11
-300.2583353519448
 21
1062.104305479166
 31
0.0
100
AcDbText
 73
     3
  0
TEXT
  5
247
330
47E
100
AcDbEntity
  8
SPEC
 62
     7
100
AcDbText
 10
-300.2583353519448
 20
968.1011587777774
 30
0.0
 40
19.00314670138889
  1
黒または白(－WH）
 41
0.7
 11
-300.2583353519448
 21
987.1043054791664
 31
0.0
100
AcDbText
 73
     3
  0
TEXT
  5
248
330
47E
100
AcDbEntity
  8
SPEC
 62
     7
100
AcDbText
 10
-300.2583353519448
 20
1118.101158777777
 30
0.0
 40
19.00314670138889
  1
60W、30W、15W
 41
0.7
 11
-300.2583353519448
 21
1137.104305479166
 31
0.0
100
AcDbText
 73
     3
  0
LINE
  5
249
330
47E
100
AcDbEntity
  8
SPEC
  6
Continuous
 62
     7
100
AcDbLine
 10
753.241664648056
 20
1372.721980999999
 30
0.0
 11
753.241664648056
 21
772.721981
 31
0.0
  0
TEXT
  5
24A
330
47E
100
AcDbEntity
  8
SPEC
 62
     7
100
AcDbText
 10
-300.2583353519448
 20
855.6011587777772
 30
0.0
 40
19.00314670138889
  1
5.9kg 
 41
0.7
 11
-300.2583353519448
 21
874.6043054791662
 31
0.0
100
AcDbText
 73
     3
  0
TEXT
  5
24B
330
47E
100
AcDbEntity
  8
SPEC
 62
     7
100
AcDbText
 10
-300.2583353519448
 20
1005.601158777777
 30
0.0
 40
19.00314670138889
  1
1インチ(25mm)
 41
0.7
 11
-300.2583353519448
 21
1024.604305479166
 31
0.0
100
AcDbText
 73
     3
  0
TEXT
  5
24C
330
47E
100
AcDbEntity
  8
SPEC
 62
     7
100
AcDbText
 10
-719.0083353519443
 20
818.1011587777772
 30
0.0
 40
19.00314670138889
  1
付属品
 41
0.7
 11
-719.0083353519443
 21
837.1043054791662
 31
0.0
100
AcDbText
 73
     3
  0
TEXT
  5
24D
330
47E
100
AcDbEntity
  8
SPEC
 62
     7
100
AcDbText
 10
-300.2583353519448
 20
818.1011587777772
 30
0.0
 40
19.00314670138889
  1
吊下げワイヤー・キット×2、2ピン・ユーロブロックコネクター×4、端子カバー×4、 
 41
0.7
 11
-300.2583353519448
 21
837.1043054791662
 31
0.0
100
AcDbText
 73
     3
  0
TEXT
  5
24E
330
47E
100
AcDbEntity
  8
SPEC
 62
     7
100
AcDbText
 10
-300.2583353519448
 20
780.6011587777772
 30
0.0
 40
19.00314670138889
  1
和文取扱説明書
 41
0.7
 11
-300.2583353519448
 21
799.6043054791662
 31
0.0
100
AcDbText
 73
     3
  0
LINE
  5
24F
330
47E
100
AcDbEntity
  8
SPEC
  6
Continuous
 62
     7
100
AcDbLine
 10
-728.0083353519438
 20
772.7219809999998
 30
0.0
 11
753.241664648056
 21
772.7219809999998
 31
0.0
  0
TEXT
  5
250
330
47E
100
AcDbEntity
  8
SPEC
 62
     7
100
AcDbText
 10
-378.3833353519448
 20
1118.101158777778
 30
0.0
 40
19.00314670138889
  1
100V
 41
0.7
 11
-378.3833353519448
 21
1137.104305479166
 31
0.0
100
AcDbText
 73
     3
  0
LINE
  5
251
330
47E
100
AcDbEntity
  8
SPEC
  6
Continuous
 62
     7
100
AcDbLine
 10
-387.383335351944
 20
1147.721981
 30
0.0
 11
-387.383335351944
 21
997.7219810000001
 31
0.0
  0
TEXT
  5
252
330
47E
100
AcDbEntity
  8
SPEC
 62
     7
100
AcDbText
 10
-378.3833353519448
 20
1080.601158777777
 30
0.0
 40
19.00314670138889
  1
70V
 41
0.7
 11
-378.3833353519448
 21
1099.604305479166
 31
0.0
100
AcDbText
 73
     3
  0
TEXT
  5
253
330
47E
100
AcDbEntity
  8
SPEC
 62
     7
100
AcDbText
 10
-378.3833353519448
 20
1043.101158777777
 30
0.0
 40
19.00314670138889
  1
LF
 41
0.7
 11
-378.3833353519448
 21
1062.104305479166
 31
0.0
100
AcDbText
 73
     3
  0
TEXT
  5
254
330
47E
100
AcDbEntity
  8
SPEC
 62
     7
100
AcDbText
 10
-378.3833353519448
 20
1005.601158777777
 30
0.0
 40
19.00314670138889
  1
HF
 41
0.7
 11
-378.3833353519448
 21
1024.604305479166
 31
0.0
100
AcDbText
 73
     3
  0
TEXT
  5
255
330
47E
100
AcDbEntity
  8
SPEC
 62
     7
100
AcDbText
 10
-715.5083353519439
 20
739.17859975
 30
0.0
 40
19.00314670138889
  1
※100時間、ピンクノイズ：IEC/クレストファクタ ー6dB
 41
0.7
 11
-715.5083353519439
 21
758.1817464513889
 31
0.0
100
AcDbText
 73
     3
  0
TEXT
  5
256
330
47E
100
AcDbEntity
  8
DIMNSIONS
 62
     7
100
AcDbText
 10
-103.008335351944
 20
-1004.583119
 30
0.0
 40
24.4326171875
  1
(単位：mm)
 41
0.7
 11
-103.008335351944
 21
-980.1505018125
 31
0.0
100
AcDbText
 73
     3
  0
LINE
  5
257
330
47E
100
AcDbEntity
  8
DIMNSIONS
  6
Continuous
 62
     7
100
AcDbLine
 10
-350.0
 20
-332.5
 30
0.0
 11
-350.0
 21
-432.5
 31
0.0
  0
LINE
  5
258
330
47E
100
AcDbEntity
  8
DIMNSIONS
  6
Continuous
 62
     7
100
AcDbLine
 10
-6.000000000000184
 20
-339.0296611394701
 30
0.0
 11
-6.000000000000184
 21
-432.5
 31
0.0
  0
LINE
  5
259
330
47E
100
AcDbEntity
  8
DIMNSIONS
  6
Continuous
 62
     7
100
AcDbLine
 10
-350.0
 20
-412.5
 30
0.0
 11
-6.000000000000184
 21
-412.5
 31
0.0
  0
LINE
  5
25A
330
47E
100
AcDbEntity
  8
DIMNSIONS
  6
Continuous
 62
     7
100
AcDbLine
 10
-350.0
 20
-412.5
 30
0.0
 11
-324.9937744140625
 21
-405.7996020484976
 31
0.0
  0
LINE
  5
25B
330
47E
100
AcDbEntity
  8
DIMNSIONS
  6
Continuous
 62
     7
100
AcDbLine
 10
-350.0
 20
-412.5
 30
0.0
 11
-324.9937744140625
 21
-419.2003979515024
 31
0.0
  0
LINE
  5
25C
330
47E
100
AcDbEntity
  8
DIMNSIONS
  6
Continuous
 62
     7
100
AcDbLine
 10
-6.000000000000184
 20
-412.5
 30
0.0
 11
-31.00622558593769
 21
-419.2003979515024
 31
0.0
  0
LINE
  5
25D
330
47E
100
AcDbEntity
  8
DIMNSIONS
  6
Continuous
 62
     7
100
AcDbLine
 10
-6.000000000000184
 20
-412.5
 30
0.0
 11
-31.00622558593769
 21
-405.7996020484976
 31
0.0
  0
TEXT
  5
25E
330
47E
100
AcDbEntity
  8
DIMNSIONS
 62
     7
100
AcDbText
 10
-204.4583333333334
 20
-403.5611111111109
 30
0.0
 40
27.14735243055556
  1
344
 41
0.7
 11
-204.4583333333334
 21
-376.4137586805554
 31
0.0
100
AcDbText
 73
     3
  0
LINE
  5
25F
330
47E
100
AcDbEntity
  8
DIMNSIONS
  6
Continuous
 62
     7
100
AcDbLine
 10
-350.0
 20
-332.5
 30
0.0
 11
-350.0
 21
-482.5
 31
0.0
  0
LINE
  5
260
330
47E
100
AcDbEntity
  8
DIMNSIONS
  6
Continuous
 62
     7
100
AcDbLine
 10
18.99999999999981
 20
-228.7960579747014
 30
0.0
 11
18.99999999999981
 21
-482.5
 31
0.0
  0
LINE
  5
261
330
47E
100
AcDbEntity
  8
DIMNSIONS
  6
Continuous
 62
     7
100
AcDbLine
 10
-350.0
 20
-462.5
 30
0.0
 11
18.99999999999981
 21
-462.5
 31
0.0
  0
LINE
  5
262
330
47E
100
AcDbEntity
  8
DIMNSIONS
  6
Continuous
 62
     7
100
AcDbLine
 10
-350.0
 20
-462.5
 30
0.0
 11
-324.9937744140625
 21
-455.7996020484976
 31
0.0
  0
LINE
  5
263
330
47E
100
AcDbEntity
  8
DIMNSIONS
  6
Continuous
 62
     7
100
AcDbLine
 10
-350.0
 20
-462.5
 30
0.0
 11
-324.9937744140625
 21
-469.2003979515024
 31
0.0
  0
LINE
  5
264
330
47E
100
AcDbEntity
  8
DIMNSIONS
  6
Continuous
 62
     7
100
AcDbLine
 10
18.99999999999981
 20
-462.5
 30
0.0
 11
-6.006225585937684
 21
-469.2003979515024
 31
0.0
  0
LINE
  5
265
330
47E
100
AcDbEntity
  8
DIMNSIONS
  6
Continuous
 62
     7
100
AcDbLine
 10
18.99999999999981
 20
-462.5
 30
0.0
 11
-6.006225585937684
 21
-455.7996020484976
 31
0.0
  0
TEXT
  5
266
330
47E
100
AcDbEntity
  8
DIMNSIONS
 62
     7
100
AcDbText
 10
-191.9583333333334
 20
-453.5611111111109
 30
0.0
 40
27.14735243055556
  1
369
 41
0.7
 11
-191.9583333333334
 21
-426.4137586805554
 31
0.0
100
AcDbText
 73
     3
  0
LINE
  5
267
330
47E
100
AcDbEntity
  8
DIMNSIONS
  6
Continuous
 62
     7
100
AcDbLine
 10
-586.1189212268061
 20
-362.5351455206277
 30
0.0
 11
-600.0
 21
-425.0
 31
0.0
  0
LINE
  5
268
330
47E
100
AcDbEntity
  8
DIMNSIONS
  6
Continuous
 62
     7
100
AcDbLine
 10
-586.1189212268061
 20
-362.5351455206277
 30
0.0
 11
-584.7640296891248
 21
-388.3880161481695
 31
0.0
  0
LINE
  5
269
330
47E
100
AcDbEntity
  8
DIMNSIONS
  6
Continuous
 62
     7
100
AcDbLine
 10
-586.1189212268061
 20
-362.5351455206277
 30
0.0
 11
-597.8719860495726
 21
-385.6018340136722
 31
0.0
  0
LINE
  5
26A
330
47E
100
AcDbEntity
  8
DIMNSIONS
  6
Continuous
 62
     7
100
AcDbLine
 10
-600.0
 20
-425.0
 30
0.0
 11
-620.0
 21
-425.0
 31
0.0
  0
TEXT
  5
26B
330
47E
100
AcDbEntity
  8
DIMNSIONS
 62
     7
100
AcDbText
 10
-708.1944444444444
 20
-437.6999999999998
 30
0.0
 40
27.14735243055556
  1
φ333
 41
0.7
 11
-708.1944444444444
 21
-410.5526475694443
 31
0.0
100
AcDbText
 73
     3
  0
LINE
  5
26C
330
47E
100
AcDbEntity
  8
DIMNSIONS
  6
Continuous
 62
     7
100
AcDbLine
 10
20.55991124714096
 20
-166.0
 30
0.0
 11
95.0
 21
-166.0
 31
0.0
  0
LINE
  5
26D
330
47E
100
AcDbEntity
  8
DIMNSIONS
  6
Continuous
 62
     7
100
AcDbLine
 10
20.48262700635477
 20
-233.9996266879236
 30
0.0
 11
95.0
 21
-233.9996266879236
 31
0.0
  0
LINE
  5
26E
330
47E
100
AcDbEntity
  8
DIMNSIONS
  6
Continuous
 62
     7
100
AcDbLine
 10
75.0
 20
-166.0
 30
0.0
 11
75.0
 21
-233.9996266879236
 31
0.0
  0
LINE
  5
26F
330
47E
100
AcDbEntity
  8
DIMNSIONS
  6
Continuous
 62
     7
100
AcDbLine
 10
75.0
 20
-166.0
 30
0.0
 11
81.70039795150243
 21
-191.0062255859375
 31
0.0
  0
LINE
  5
270
330
47E
100
AcDbEntity
  8
DIMNSIONS
  6
Continuous
 62
     7
100
AcDbLine
 10
75.0
 20
-166.0
 30
0.0
 11
68.29960204849758
 21
-191.0062255859375
 31
0.0
  0
LINE
  5
271
330
47E
100
AcDbEntity
  8
DIMNSIONS
  6
Continuous
 62
     7
100
AcDbLine
 10
75.0
 20
-233.9996266879236
 30
0.0
 11
68.29960204849758
 21
-208.993401101986
 31
0.0
  0
LINE
  5
272
330
47E
100
AcDbEntity
  8
DIMNSIONS
  6
Continuous
 62
     7
100
AcDbLine
 10
75.0
 20
-233.9996266879236
 30
0.0
 11
81.70039795150243
 21
-208.993401101986
 31
0.0
  0
TEXT
  5
273
330
47E
100
AcDbEntity
  8
DIMNSIONS
 62
     7
100
AcDbText
 10
66.06111111111111
 20
-217.6387022328507
 30
0.0
 40
27.14735243055556
  1
68
 50
90.0
 41
0.7
 11
38.91375868055556
 21
-217.6387022328507
 31
0.0
100
AcDbText
 73
     3
  0
LINE
  5
274
330
47E
100
AcDbEntity
  8
DIMNSIONS
  6
Continuous
 62
     7
100
AcDbLine
 10
274.0
 20
-254.0
 30
0.0
 11
274.0
 21
-432.5
 31
0.0
  0
LINE
  5
275
330
47E
100
AcDbEntity
  8
DIMNSIONS
  6
Continuous
 62
     7
100
AcDbLine
 10
276.0
 20
-254.0
 30
0.0
 11
276.0
 21
-432.5
 31
0.0
  0
LINE
  5
276
330
47E
100
AcDbEntity
  8
DIMNSIONS
  6
Continuous
 62
     7
100
AcDbLine
 10
276.0
 20
-412.5
 30
0.0
 11
274.0
 21
-412.5
 31
0.0
  0
LINE
  5
277
330
47E
100
AcDbEntity
  8
DIMNSIONS
  6
Continuous
 62
     7
100
AcDbLine
 10
274.0
 20
-412.5
 30
0.0
 11
239.0
 21
-412.5
 31
0.0
  0
LINE
  5
278
330
47E
100
AcDbEntity
  8
DIMNSIONS
  6
Continuous
 62
     7
100
AcDbLine
 10
274.0
 20
-412.5
 30
0.0
 11
248.9937744140625
 21
-419.2003979515024
 31
0.0
  0
LINE
  5
279
330
47E
100
AcDbEntity
  8
DIMNSIONS
  6
Continuous
 62
     7
100
AcDbLine
 10
274.0
 20
-412.5
 30
0.0
 11
248.9937744140625
 21
-405.7996020484976
 31
0.0
  0
LINE
  5
27A
330
47E
100
AcDbEntity
  8
DIMNSIONS
  6
Continuous
 62
     7
100
AcDbLine
 10
276.0
 20
-412.5
 30
0.0
 11
316.6388888888889
 21
-412.5
 31
0.0
  0
LINE
  5
27B
330
47E
100
AcDbEntity
  8
DIMNSIONS
  6
Continuous
 62
     7
100
AcDbLine
 10
276.0
 20
-412.5
 30
0.0
 11
301.0062255859375
 21
-405.7996020484976
 31
0.0
  0
LINE
  5
27C
330
47E
100
AcDbEntity
  8
DIMNSIONS
  6
Continuous
 62
     7
100
AcDbLine
 10
276.0
 20
-412.5
 30
0.0
 11
301.0062255859375
 21
-419.2003979515024
 31
0.0
  0
TEXT
  5
27D
330
47E
100
AcDbEntity
  8
DIMNSIONS
 62
     7
100
AcDbText
 10
299.0
 20
-403.5611111111109
 30
0.0
 40
27.14735243055556
  1
2
 41
0.7
 11
299.0
 21
-376.4137586805554
 31
0.0
100
AcDbText
 73
     3
  0
LINE
  5
27E
330
47E
100
AcDbEntity
  8
DIMNSIONS
  6
Continuous
 62
     7
100
AcDbLine
 10
8.247477252042401
 20
-194.2601112159185
 30
0.0
 11
74.99999999999999
 21
25.0
 31
0.0
  0
LINE
  5
27F
330
47E
100
AcDbEntity
  8
DIMNSIONS
  6
Continuous
 62
     7
100
AcDbLine
 10
8.247477252042401
 20
-194.2601112159185
 30
0.0
 11
9.150967627417514
 21
-168.3875319880004
 31
0.0
  0
LINE
  5
280
330
47E
100
AcDbEntity
  8
DIMNSIONS
  6
Continuous
 62
     7
100
AcDbLine
 10
8.247477252042401
 20
-194.2601112159185
 30
0.0
 11
21.96621248315101
 21
-172.3055455308034
 31
0.0
  0
LINE
  5
281
330
47E
100
AcDbEntity
  8
DIMNSIONS
  6
Continuous
 62
     7
100
AcDbLine
 10
74.99999999999999
 20
25.0
 30
0.0
 11
94.99999999999998
 21
25.0
 31
0.0
  0
TEXT
  5
282
330
47E
100
AcDbEntity
  8
DIMNSIONS
 62
     7
100
AcDbText
 10
94.99999999999998
 20
12.29999999999999
 30
0.0
 40
27.14735243055556
  1
φ12吊下げ
 41
0.7
 11
94.99999999999998
 21
39.44735243055555
 31
0.0
100
AcDbText
 73
     3
  0
TEXT
  5
283
330
47E
100
AcDbEntity
  8
DIMNSIONS
 62
     7
100
AcDbText
 10
-241.8055555555556
 20
-22.97777777777778
 30
0.0
 40
27.14735243055556
  1
取付穴(2ヵ所)
 41
0.7
 11
-241.8055555555556
 21
4.169574652777782
 31
0.0
100
AcDbText
 73
     3
  0
LINE
  5
284
330
47E
100
AcDbEntity
  8
DIMNSIONS
  6
Continuous
 62
     7
100
AcDbLine
 10
5.381486652566252
 20
-179.7682330638379
 30
0.0
 11
25.0
 21
25.0
 31
0.0
  0
LINE
  5
285
330
47E
100
AcDbEntity
  8
DIMNSIONS
  6
Continuous
 62
     7
100
AcDbLine
 10
5.381486652566252
 20
-179.7682330638379
 30
0.0
 11
1.331656514738682
 21
-154.1986118969525
 31
0.0
  0
LINE
  5
286
330
47E
100
AcDbEntity
  8
DIMNSIONS
  6
Continuous
 62
     7
100
AcDbLine
 10
5.381486652566252
 20
-179.7682330638379
 30
0.0
 11
14.65904145563847
 21
-155.599376499257
 31
0.0
  0
LINE
  5
287
330
47E
100
AcDbEntity
  8
DIMNSIONS
  6
Continuous
 62
     7
100
AcDbLine
 10
25.0
 20
25.0
 30
0.0
 11
5.0
 21
25.0
 31
0.0
  0
TEXT
  5
288
330
47E
100
AcDbEntity
  8
DIMNSIONS
 62
     7
100
AcDbText
 10
-347.7777777777777
 20
12.29999999999999
 30
0.0
 40
27.14735243055556
  1
7.5落下防止ワイヤー 
 41
0.7
 11
-347.7777777777777
 21
39.44735243055555
 31
0.0
100
AcDbText
 73
     3
  0
TEXT
  5
289
330
47E
100
AcDbEntity
  8
DIMNSIONS
 62
     7
100
AcDbText
 10
94.99999999999998
 20
-22.97777777777778
 30
0.0
 40
27.14735243055556
  1
ワイヤー取付穴
 41
0.7
 11
94.99999999999998
 21
4.169574652777782
 31
0.0
100
AcDbText
 73
     3
  0
LINE
  5
28A
330
47E
100
AcDbEntity
  8
DATA
  6
Continuous
 62
     7
100
AcDbLine
 10
797.8125
 20
64.89922449673149
 30
0.0
 11
702.1875
 21
64.89922449673149
 31
0.0
  0
LINE
  5
28B
330
47E
100
AcDbEntity
  8
DATA
  6
Continuous
 62
     7
100
AcDbLine
 10
797.8125
 20
-6.819525503268892
 30
0.0
 11
797.8125
 21
64.89922449673149
 31
0.0
  0
LINE
  5
28C
330
47E
100
AcDbEntity
  8
DATA
  6
Continuous
 62
     7
100
AcDbLine
 10
702.1875
 20
-6.819525503268892
 30
0.0
 11
702.1875
 21
64.89922449673149
 31
0.0
  0
LINE
  5
28D
330
47E
100
AcDbEntity
  8
DATA
  6
Continuous
 62
     7
100
AcDbLine
 10
797.8125
 20
-6.819525503268892
 30
0.0
 11
702.1875
 21
-6.819525503268892
 31
0.0
  0
LWPOLYLINE
  5
28E
330
47E
100
AcDbEntity
  8
DATA
  6
Continuous
 62
     7
100
AcDbPolyline
 90
        4
 70
     1
 43
0.0
 10
726.0937499999999
 20
33.02422449673111
 10
734.0625
 20
33.02422449673111
 10
734.0625
 20
25.05547449673111
 10
726.0937499999999
 20
25.05547449673111
  0
LWPOLYLINE
  5
295
330
47E
100
AcDbEntity
  8
DATA
  6
Continuous
 62
     7
100
AcDbPolyline
 90
        4
 70
     1
 43
0.0
 10
765.9374999999999
 20
33.02422449673111
 10
773.90625
 20
33.02422449673111
 10
773.90625
 20
25.05547449673111
 10
765.9374999999999
 20
25.05547449673111
  0
LINE
  5
29C
330
47E
100
AcDbEntity
  8
DATA
  6
Continuous
 62
     7
100
AcDbLine
 10
764.4091148735525
 20
95.18047449673156
 30
0.0
 11
780.3466148735525
 21
95.18047449673156
 31
0.0
  0
LINE
  5
29D
330
47E
100
AcDbEntity
  8
DATA
  6
Continuous
 62
     7
100
AcDbLine
 10
727.6221351264478
 20
87.21172449673156
 30
0.0
 11
727.6221351264478
 21
103.1492244967316
 31
0.0
  0
LINE
  5
29E
330
47E
100
AcDbEntity
  8
DATA
  6
Continuous
 62
     7
100
AcDbLine
 10
719.6533851264478
 20
95.18047449673156
 30
0.0
 11
735.5908851264477
 21
95.18047449673156
 31
0.0
  0
LINE
  5
29F
330
47E
100
AcDbEntity
  8
DATA
  6
Continuous
 62
     7
100
AcDbLine
 10
706.9687500000001
 20
5.133599496731108
 30
0.0
 11
706.9687500000001
 21
52.94609949673149
 31
0.0
  0
LINE
  5
2A0
330
47E
100
AcDbEntity
  8
DATA
  6
Continuous
 62
     7
100
AcDbLine
 10
793.0312500000001
 20
5.133599496731108
 30
0.0
 11
793.0312500000001
 21
52.94609949673149
 31
0.0
  0
LINE
  5
2A1
330
47E
100
AcDbEntity
  8
DATA
  6
Continuous
 62
     7
100
AcDbLine
 10
793.0312500000001
 20
52.94609949673149
 30
0.0
 11
706.9687500000001
 21
52.94609949673149
 31
0.0
  0
LINE
  5
2A2
330
47E
100
AcDbEntity
  8
DATA
  6
Continuous
 62
     7
100
AcDbLine
 10
793.0312500000001
 20
5.133599496731108
 30
0.0
 11
789.0468749999969
 21
5.133599496731108
 31
0.0
  0
LINE
  5
2A3
330
47E
100
AcDbEntity
  8
DATA
  6
Continuous
 62
     7
100
AcDbLine
 10
753.9843750000031
 20
5.133599496731108
 30
0.0
 11
746.015624999997
 21
5.133599496731108
 31
0.0
  0
LINE
  5
2A4
330
47E
100
AcDbEntity
  8
DATA
  6
Continuous
 62
     7
100
AcDbLine
 10
710.953125000003
 20
5.133599496731108
 30
0.0
 11
706.9687500000001
 21
5.133599496731108
 31
0.0
  0
LINE
  5
2A5
330
47E
100
AcDbEntity
  8
DATA
  6
Continuous
 62
     7
100
AcDbLine
 10
706.9687500000001
 20
5.133599496731108
 30
0.0
 11
710.953125000003
 21
5.133599496731108
 31
0.0
  0
LINE
  5
2A6
330
47E
100
AcDbEntity
  8
DATA
  6
Continuous
 62
     7
100
AcDbLine
 10
746.015624999997
 20
5.133599496731108
 30
0.0
 11
750.0
 21
5.133599496731108
 31
0.0
  0
ARC
  5
2A7
330
47E
100
AcDbEntity
  8
DATA
  6
Continuous
 62
     7
100
AcDbCircle
 10
728.484375
 20
17.88929146101674
 30
0.0
 40
21.68069196428549
100
AcDbArc
 50
216.0395385635545
 51
323.9604614364459
  0
ARC
  5
2A8
330
47E
100
AcDbEntity
  8
DATA
  6
Continuous
 62
     7
100
AcDbCircle
 10
771.5156250000001
 20
17.88929146101674
 30
0.0
 40
21.68069196428584
100
AcDbArc
 50
216.0395385635538
 51
323.9604614364457
  0
LINE
  5
2A9
330
47E
100
AcDbEntity
  8
DATA
  6
Continuous
 62
     7
100
AcDbLine
 10
797.8125
 20
-78.2812499999995
 30
0.0
 11
702.1875
 21
-78.2812499999995
 31
0.0
  0
LINE
  5
2AA
330
47E
100
AcDbEntity
  8
DATA
  6
Continuous
 62
     7
100
AcDbLine
 10
797.8125
 20
-150.0
 30
0.0
 11
797.8125
 21
-78.2812499999995
 31
0.0
  0
LINE
  5
2AB
330
47E
100
AcDbEntity
  8
DATA
  6
Continuous
 62
     7
100
AcDbLine
 10
702.1875
 20
-150.0
 30
0.0
 11
702.1875
 21
-78.2812499999995
 31
0.0
  0
LINE
  5
2AC
330
47E
100
AcDbEntity
  8
DATA
  6
Continuous
 62
     7
100
AcDbLine
 10
797.8125
 20
-150.0
 30
0.0
 11
702.1875
 21
-150.0
 31
0.0
  0
LWPOLYLINE
  5
2AD
330
47E
100
AcDbEntity
  8
DATA
  6
Continuous
 62
     7
100
AcDbPolyline
 90
        4
 70
     1
 43
0.0
 10
726.0937499999999
 20
-110.1562499999999
 10
734.0625
 20
-110.1562499999999
 10
734.0625
 20
-118.125
 10
726.0937499999999
 20
-118.125
  0
LWPOLYLINE
  5
2B4
330
47E
100
AcDbEntity
  8
DATA
  6
Continuous
 62
     7
100
AcDbPolyline
 90
        4
 70
     1
 43
0.0
 10
765.9374999999999
 20
-110.1562499999999
 10
773.90625
 20
-110.1562499999999
 10
773.90625
 20
-118.125
 10
765.9374999999999
 20
-118.125
  0
LINE
  5
2BB
330
47E
100
AcDbEntity
  8
DATA
  6
Continuous
 62
     7
100
AcDbLine
 10
764.4091148735525
 20
-47.99999999999952
 30
0.0
 11
780.3466148735525
 21
-47.99999999999952
 31
0.0
  0
LINE
  5
2BC
330
47E
100
AcDbEntity
  8
DATA
  6
Continuous
 62
     7
100
AcDbLine
 10
727.6221351264478
 20
-55.96874999999952
 30
0.0
 11
727.6221351264478
 21
-40.03124999999952
 31
0.0
  0
LINE
  5
2BD
330
47E
100
AcDbEntity
  8
DATA
  6
Continuous
 62
     7
100
AcDbLine
 10
719.6533851264478
 20
-47.99999999999952
 30
0.0
 11
735.5908851264477
 21
-47.99999999999952
 31
0.0
  0
LINE
  5
2BE
330
47E
100
AcDbEntity
  8
DATA
  6
Continuous
 62
     7
100
AcDbLine
 10
706.9687500000001
 20
-138.046875
 30
0.0
 11
706.9687500000001
 21
-90.23437499999948
 31
0.0
  0
LINE
  5
2BF
330
47E
100
AcDbEntity
  8
DATA
  6
Continuous
 62
     7
100
AcDbLine
 10
793.0312500000001
 20
-138.046875
 30
0.0
 11
793.0312500000001
 21
-90.23437499999948
 31
0.0
  0
LINE
  5
2C0
330
47E
100
AcDbEntity
  8
DATA
  6
Continuous
 62
     7
100
AcDbLine
 10
793.0312500000001
 20
-90.23437499999948
 30
0.0
 11
706.9687500000001
 21
-90.23437499999948
 31
0.0
  0
LINE
  5
2C1
330
47E
100
AcDbEntity
  8
DATA
  6
Continuous
 62
     7
100
AcDbLine
 10
793.0312500000001
 20
-138.046875
 30
0.0
 11
789.0468749999969
 21
-138.046875
 31
0.0
  0
LINE
  5
2C2
330
47E
100
AcDbEntity
  8
DATA
  6
Continuous
 62
     7
100
AcDbLine
 10
753.9843750000031
 20
-138.046875
 30
0.0
 11
746.015624999997
 21
-138.046875
 31
0.0
  0
LINE
  5
2C3
330
47E
100
AcDbEntity
  8
DATA
  6
Continuous
 62
     7
100
AcDbLine
 10
710.953125000003
 20
-138.046875
 30
0.0
 11
706.9687500000001
 21
-138.046875
 31
0.0
  0
LINE
  5
2C4
330
47E
100
AcDbEntity
  8
DATA
  6
Continuous
 62
     7
100
AcDbLine
 10
706.9687500000001
 20
-138.046875
 30
0.0
 11
710.953125000003
 21
-138.046875
 31
0.0
  0
LINE
  5
2C5
330
47E
100
AcDbEntity
  8
DATA
  6
Continuous
 62
     7
100
AcDbLine
 10
746.015624999997
 20
-138.046875
 30
0.0
 11
750.0
 21
-138.046875
 31
0.0
  0
ARC
  5
2C6
330
47E
100
AcDbEntity
  8
DATA
  6
Continuous
 62
     7
100
AcDbCircle
 10
728.484375
 20
-125.2911830357143
 30
0.0
 40
21.68069196428549
100
AcDbArc
 50
216.0395385635545
 51
323.960461436446
  0
ARC
  5
2C7
330
47E
100
AcDbEntity
  8
DATA
  6
Continuous
 62
     7
100
AcDbCircle
 10
771.5156250000001
 20
-125.2911830357143
 30
0.0
 40
21.68069196428584
100
AcDbArc
 50
216.0395385635538
 51
323.9604614364457
  0
CIRCLE
  5
2C8
330
47E
100
AcDbEntity
  8
DATA
  6
Continuous
 62
     7
100
AcDbCircle
 10
751.8749999999999
 20
-449.9307534420124
 30
0.0
 40
94.51431000000003
  0
TEXT
  5
2C9
330
47E
100
AcDbEntity
  8
DATA
 62
     7
100
AcDbText
 10
765.3425755053692
 20
-504.8085622508
 30
0.0
 40
22.45086622888184
  1
30
 50
284.0
 41
0.7
 11
787.1265550584474
 21
-499.3772061348543
 31
0.0
100
AcDbText
 73
     3
  0
TEXT
  5
2CA
330
47E
100
AcDbEntity
  8
DATA
 62
     7
100
AcDbText
 10
765.2951158693132
 20
-364.0994940906151
 30
0.0
 40
22.45086622888184
  1
30
 50
265.0
 41
0.7
 11
787.6605497740923
 21
-366.0562160121216
 31
0.0
100
AcDbText
 73
     3
  0
TEXT
  5
2CB
330
47E
100
AcDbEntity
  8
DATA
 62
     7
100
AcDbText
 10
803.242775322897
 20
-461.3332676136539
 30
0.0
 40
22.45086622888184
  1
8Ω
 41
0.7
 11
803.242775322897
 21
-438.882401384772
 31
0.0
100
AcDbText
 73
     3
  0
TEXT
  5
2CC
330
47E
100
AcDbEntity
  8
DATA
 62
     7
100
AcDbText
 10
700.7045324939728
 20
-438.7533829555938
 30
0.0
 40
22.45086622888184
  1
8Ω
 50
180.0
 41
0.7
 11
700.7045324939728
 21
-461.2042491844757
 31
0.0
100
AcDbText
 73
     3
  0
TEXT
  5
2CD
330
47E
100
AcDbEntity
  8
DATA
 62
     7
100
AcDbText
 10
811.0104017425969
 20
-385.0997579809683
 30
0.0
 40
22.45086622888184
  1
15
 50
240.0
 41
0.7
 11
830.4534222337746
 21
-396.3251910954093
 31
0.0
100
AcDbText
 73
     3
  0
CIRCLE
  5
2CE
330
47E
100
AcDbEntity
  8
DATA
  6
Continuous
 62
     7
100
AcDbCircle
 10
686.2499999999999
 20
-403.9217376364145
 30
0.0
 40
4.913234163220407
  0
TEXT
  5
2CF
330
47E
100
AcDbEntity
  8
DATA
 62
     7
100
AcDbText
 10
716.3080510460641
 20
-475.744940716255
 30
0.0
 40
22.45086622888184
  1
7.5
 50
210.0
 41
0.7
 11
727.533484160505
 21
-495.1879612074328
 31
0.0
100
AcDbText
 73
     3
  0
TEXT
  5
2D0
330
47E
100
AcDbEntity
  8
DATA
 62
     7
100
AcDbText
 10
727.1273732001051
 20
-505.1947935058492
 30
0.0
 40
22.45086622888184
  1
15
 50
240.0
 41
0.7
 11
746.5703936912829
 21
-516.4202266202901
 31
0.0
100
AcDbText
 73
     3
  0
TEXT
  5
2D1
330
47E
100
AcDbEntity
  8
DATA
 62
     7
100
AcDbText
 10
794.5949263939119
 20
-486.5401606797185
 30
0.0
 40
22.45086622888184
  1
60
 50
300.0
 41
0.7
 11
814.0379468850897
 21
-475.3147275652776
 31
0.0
100
AcDbText
 73
     3
  0
TEXT
  5
2D2
330
47E
100
AcDbEntity
  8
DATA
 62
     7
100
AcDbText
 10
708.9491015662657
 20
-373.1813030642411
 30
0.0
 40
22.45086622888184
  1
60
 50
290.0000000000001
 41
0.7
 11
730.0460148917975
 21
-365.5026545788536
 31
0.0
100
AcDbText
 73
     3
  0
LWPOLYLINE
  5
2D3
330
47E
100
AcDbEntity
  8
DATA
  6
Continuous
 62
     7
100
AcDbPolyline
 90
        4
 70
     1
 43
0.0
 10
712.2334719018129
 20
-467.7206536325472
 10
709.6075138706214
 20
-452.8281055911705
 10
791.5165280981888
 20
-438.3853364196173
 10
794.1424861293808
 20
-453.2778844609937
  0
LINE
  5
2DA
330
47E
100
AcDbEntity
  8
DATA
  6
Continuous
 62
     7
100
AcDbLine
 10
630.42411165
 20
-459.3821844420138
 30
0.0
 11
649.3269736500001
 21
-449.9307534420132
 31
0.0
  0
LINE
  5
2DB
330
47E
100
AcDbEntity
  8
DATA
  6
Continuous
 62
     7
100
AcDbLine
 10
649.3269736500001
 20
-449.9307534420132
 30
0.0
 11
630.42411165
 21
-440.4793224420131
 31
0.0
  0
LINE
  5
2DC
330
47E
100
AcDbEntity
  8
DATA
  6
Continuous
 62
     7
100
AcDbLine
 10
630.42411165
 20
-459.3821844420138
 30
0.0
 11
630.42411165
 21
-440.4793224420131
 31
0.0
  0
LINE
  5
2DD
330
47E
100
AcDbEntity
  8
DATA
  6
Continuous
 62
     7
100
AcDbLine
 10
873.3258883500001
 20
-459.3821844420138
 30
0.0
 11
854.4230263500002
 21
-449.9307534420132
 31
0.0
  0
LINE
  5
2DE
330
47E
100
AcDbEntity
  8
DATA
  6
Continuous
 62
     7
100
AcDbLine
 10
854.4230263500002
 20
-449.9307534420132
 30
0.0
 11
873.3258883500001
 21
-440.4793224420131
 31
0.0
  0
LINE
  5
2DF
330
47E
100
AcDbEntity
  8
DATA
  6
Continuous
 62
     7
100
AcDbLine
 10
873.3258883500001
 20
-459.3821844420138
 30
0.0
 11
873.3258883500001
 21
-440.4793224420131
 31
0.0
  0
TEXT
  5
2E0
330
47E
100
AcDbEntity
  8
DATA
 62
     7
100
AcDbText
 10
739.4675552707609
 20
-490.8240579884867
 30
0.0
 40
22.45086622888184
  1
70V
 50
9.999999999999996
 41
0.7
 11
735.5690032630716
 21
-468.7142708644439
 31
0.0
100
AcDbText
 73
     3
  0
TEXT
  5
2E1
330
47E
100
AcDbEntity
  8
DATA
 62
     7
100
AcDbText
 10
773.7052111280593
 20
-414.8972212648303
 30
0.0
 40
22.45086622888184
  1
100V
 50
190.0
 41
0.7
 11
777.6037631357486
 21
-437.0070083888732
 31
0.0
100
AcDbText
 73
     3
  0
TEXT
  5
2E2
330
47E
100
AcDbEntity
  8
DATA
 62
     7
100
AcDbText
 10
687.7954984627699
 20
-207.3236762152778
 30
0.0
 40
27.14735243055556
  1
端子拡大図
 41
0.7
 72
     1
 11
741.6377474500384
 21
-193.75
 31
0.0
100
AcDbText
 73
     2
  0
TEXT
  5
2E3
330
47E
100
AcDbEntity
  8
DATA
 62
     7
100
AcDbText
 10
597.5140590737749
 20
-1015.094712201842
 30
0.0
 40
24.4326171875
  1
Control 67HC/T 
 41
0.7
 11
597.5140590737749
 21
-990.6620950143425
 31
0.0
100
AcDbText
 73
     3
  0
LINE
  5
2E4
330
47E
100
AcDbEntity
  8
DATA
  6
Continuous
 62
     7
100
AcDbLine
 10
645.429164648056
 20
-225.0
 30
0.0
 11
848.5541646480561
 21
-225.0
 31
0.0
  0
TEXT
  5
2E5
330
47E
100
AcDbEntity
  8
DATA
 62
     7
100
AcDbText
 10
-785.4424536768664
 20
-1053.160271881119
 30
0.0
 40
19.00314670138889
  1
※仕様及び外観は予告なく変更されることがあります。
 41
0.7
 11
-785.4424536768664
 21
-1034.15712517973
 31
0.0
100
AcDbText
 73
     3
  0
TEXT
  5
2E6
330
47E
100
AcDbEntity
  8
DATA
 62
     7
100
AcDbText
 10
-785.4424536768664
 20
-1077.854716325563
 30
0.0
 40
19.00314670138889
  1
　また、同一商品でも若干の個体差があることがあります。ご了承ください。
 41
0.7
 11
-785.4424536768664
 21
-1058.851569624175
 31
0.0
100
AcDbText
 73
     3
  0
TEXT
  5
2E7
330
47E
100
AcDbEntity
  8
DATA
 62
     7
100
AcDbText
 10
596.991664648056
 20
-941.4218076410072
 30
0.0
 40
24.4326171875
  1
JBL PROFESSIONAL
 41
0.7
 11
596.991664648056
 21
-916.9891904535072
 31
0.0
100
AcDbText
 73
     3
  0
TEXT
  5
2E8
330
47E
100
AcDbEntity
  8
DATA
 62
     7
100
AcDbText
 10
525.0
 20
-976.7449534126189
 30
0.0
 40
16.28841145833333
  1
天井吊下げ用同軸2-Wayフルレンジ・スピーカー
 41
0.7
 11
525.0
 21
-960.4565419542856
 31
0.0
100
AcDbText
 73
     3
  0
TEXT
  5
2E9
330
47E
100
AcDbEntity
  8
DATA
 62
     7
100
AcDbText
 10
627.7464228877313
 20
-604.1294296572901
 30
0.0
 40
27.14735243055556
  1
入力選択スイッチ拡大図
 41
0.7
 72
     1
 11
750.0
 21
-590.5557534420124
 31
0.0
100
AcDbText
 73
     2
  0
LINE
  5
2EA
330
47E
100
AcDbEntity
  8
DATA
  6
Continuous
 62
     7
100
AcDbLine
 10
546.875
 20
-625.0
 30
0.0
 11
953.125
 21
-625.0
 31
0.0
  0
ARC
  5
2EB
330
47E
100
AcDbEntity
  8
DATA
  6
Continuous
 62
     7
100
AcDbCircle
 10
-549.9999999999998
 20
-200.0
 30
0.0
 40
112.4999999999996
100
AcDbArc
 50
336.3030057220515
 51
188.58833416726
  0
CIRCLE
  5
2EC
330
47E
100
AcDbEntity
  8
DATA
  6
Continuous
 62
     7
100
AcDbCircle
 10
-550.0
 20
-200.0
 30
0.0
 40
166.5
  0
LWPOLYLINE
  5
2ED
330
47E
100
AcDbEntity
  8
DATA
  6
Continuous
 62
     7
100
AcDbPolyline
 90
        4
 70
     1
 43
0.0
 10
-558.4999999999999
 20
-189.5
 10
-541.5
 20
-189.5
 10
-541.5
 20
-210.5
 10
-558.4999999999999
 20
-210.5
  0
CIRCLE
  5
2F4
330
47E
100
AcDbEntity
  8
DATA
  6
Continuous
 62
     7
100
AcDbCircle
 10
-550.0
 20
-200.0
 30
0.0
 40
147.5
  0
CIRCLE
  5
2F5
330
47E
100
AcDbEntity
  8
DATA
  6
Continuous
 62
     7
100
AcDbCircle
 10
-550.0
 20
-200.0
 30
0.0
 40
155.0
  0
ARC
  5
2F6
330
47E
100
AcDbEntity
  8
DATA
  6
Continuous
 62
     7
100
AcDbCircle
 10
-553.6960165314292
 20
-200.8955313114348
 30
0.0
 40
0.3084800445473747
100
AcDbArc
 50
217.6419024975205
 51
264.2670192893533
  0
LINE
  5
2F7
330
47E
100
AcDbEntity
  8
DATA
  6
Continuous
 62
     7
100
AcDbLine
 10
-548.8348702890937
 20
-192.9718468175324
 30
0.0
 11
-545.3890779306943
 21
-194.4180058703323
 31
0.0
  0
LINE
  5
2F8
330
47E
100
AcDbEntity
  8
DATA
  6
Continuous
 62
     7
100
AcDbLine
 10
-548.8348702890937
 20
-192.9718468175324
 30
0.0
 11
-545.3890779306943
 21
-191.5435317839324
 31
0.0
  0
LINE
  5
2F9
330
47E
100
AcDbEntity
  8
DATA
  6
Continuous
 62
     7
100
AcDbLine
 10
-555.065877930694
 20
-203.9341129295321
 30
0.0
 11
-545.3890779306943
 21
-203.9341129295321
 31
0.0
  0
LINE
  5
2FA
330
47E
100
AcDbEntity
  8
DATA
  6
Continuous
 62
     7
100
AcDbLine
 10
-545.3890779306943
 20
-205.790916667132
 30
0.0
 11
-553.584011485894
 21
-205.790916667132
 31
0.0
  0
LINE
  5
2FB
330
47E
100
AcDbEntity
  8
DATA
  6
Continuous
 62
     7
100
AcDbLine
 10
-545.3890779306943
 20
-195.0964559951321
 30
0.0
 11
-553.584011485894
 21
-195.0964559951321
 31
0.0
  0
LINE
  5
2FC
330
47E
100
AcDbEntity
  8
DATA
  6
Continuous
 62
     7
100
AcDbLine
 10
-545.3890779306943
 20
-196.8818449487326
 30
0.0
 11
-553.584011485894
 21
-196.8818449487326
 31
0.0
  0
LINE
  5
2FD
330
47E
100
AcDbEntity
  8
DATA
  6
Continuous
 62
     7
100
AcDbLine
 10
-545.3890779306943
 20
-197.8102468175324
 30
0.0
 11
-555.065877930694
 21
-197.8102468175324
 31
0.0
  0
LINE
  5
2FE
330
47E
100
AcDbEntity
  8
DATA
  6
Continuous
 62
     7
100
AcDbLine
 10
-546.2996164266944
 20
-199.434952507132
 30
0.0
 11
-549.4061982378936
 21
-199.434952507132
 31
0.0
  0
LINE
  5
2FF
330
47E
100
AcDbEntity
  8
DATA
  6
Continuous
 62
     7
100
AcDbLine
 10
-549.2264420010938
 20
-202.9172264015324
 30
0.0
 11
-546.9602225322939
 21
-202.9172264015324
 31
0.0
  0
LINE
  5
300
330
47E
100
AcDbEntity
  8
DATA
  6
Continuous
 62
     7
100
AcDbLine
 10
-546.7281148074942
 20
-201.2024684111321
 30
0.0
 11
-548.9777095338938
 21
-201.2024684111321
 31
0.0
  0
ARC
  5
301
330
47E
100
AcDbEntity
  8
DATA
  6
Continuous
 62
     7
100
AcDbCircle
 10
-552.5810692266938
 20
-194.738182151932
 30
0.0
 40
2.495504882466497
100
AcDbArc
 50
174.6908562215438
 51
233.9911991542394
  0
LINE
  5
302
330
47E
100
AcDbEntity
  8
DATA
  6
Continuous
 62
     7
100
AcDbLine
 10
-552.030710903494
 20
-193.7395654223324
 30
0.0
 11
-553.583992132294
 21
-193.7395654223324
 31
0.0
  0
LINE
  5
303
330
47E
100
AcDbEntity
  8
DATA
  6
Continuous
 62
     7
100
AcDbLine
 10
-552.030710903494
 20
-193.7395654223324
 30
0.0
 11
-552.030710903494
 21
-192.1327134287321
 31
0.0
  0
LINE
  5
304
330
47E
100
AcDbEntity
  8
DATA
  6
Continuous
 62
     7
100
AcDbLine
 10
-552.030710903494
 20
-192.1327134287321
 30
0.0
 11
-553.583992132294
 21
-192.1327134287321
 31
0.0
  0
ARC
  5
305
330
47E
100
AcDbEntity
  8
DATA
  6
Continuous
 62
     7
100
AcDbCircle
 10
-553.604932727494
 20
-194.4214121039322
 30
0.0
 40
0.675371766578175
100
AcDbArc
 50
179.7118487927509
 51
271.7759870056735
  0
ARC
  5
306
330
47E
100
AcDbEntity
  8
DATA
  6
Continuous
 62
     7
100
AcDbCircle
 10
-553.604932727494
 20
-194.4146093135323
 30
0.0
 40
0.6753683131384248
100
AcDbArc
 50
88.22401299430046
 51
180.2881512072283
  0
ARC
  5
307
330
47E
100
AcDbEntity
  8
DATA
  6
Continuous
 62
     7
100
AcDbCircle
 10
-552.5810692266938
 20
-194.2763762255322
 30
0.0
 40
2.495500829608748
100
AcDbArc
 50
126.0088008457614
 51
185.3091437784586
  0
ARC
  5
308
330
47E
100
AcDbEntity
  8
DATA
  6
Continuous
 62
     7
100
AcDbCircle
 10
-553.5292891818942
 20
-193.2604864079321
 30
0.0
 40
1.129089225448052
100
AcDbArc
 50
92.776995449984
 51
117.3596066671413
  0
CIRCLE
  5
309
330
47E
100
AcDbEntity
  8
DATA
  6
Continuous
 62
     7
100
AcDbCircle
 10
-550.1739168426937
 20
-193.0700469839321
 30
0.0
 40
0.9194701823998912
  0
LINE
  5
30A
330
47E
100
AcDbEntity
  8
DATA
  6
Continuous
 62
     7
100
AcDbLine
 10
-555.065868253894
 20
-208.7725129295322
 30
0.0
 11
-555.065868253894
 21
-203.9341129295321
 31
0.0
  0
LINE
  5
30B
330
47E
100
AcDbEntity
  8
DATA
  6
Continuous
 62
     7
100
AcDbLine
 10
-555.065868253894
 20
-208.7725129295322
 30
0.0
 11
-552.0307012266941
 21
-208.7725129295322
 31
0.0
  0
LINE
  5
30C
330
47E
100
AcDbEntity
  8
DATA
  6
Continuous
 62
     7
100
AcDbLine
 10
-552.030710903494
 20
-208.7725129295322
 30
0.0
 11
-552.030710903494
 21
-207.1478169167321
 31
0.0
  0
LINE
  5
30D
330
47E
100
AcDbEntity
  8
DATA
  6
Continuous
 62
     7
100
AcDbLine
 10
-552.030710903494
 20
-207.1478169167321
 30
0.0
 11
-553.583992132294
 21
-207.1478169167321
 31
0.0
  0
LINE
  5
30E
330
47E
100
AcDbEntity
  8
DATA
  6
Continuous
 62
     7
100
AcDbLine
 10
-555.065868253894
 20
-197.8102468175324
 30
0.0
 11
-555.0658585770941
 21
-201.2024684111321
 31
0.0
  0
LINE
  5
30F
330
47E
100
AcDbEntity
  8
DATA
  6
Continuous
 62
     7
100
AcDbLine
 10
-554.1553200810942
 20
-199.4349428303321
 30
0.0
 11
-554.1553200810942
 21
-200.3097836111324
 31
0.0
  0
LINE
  5
310
330
47E
100
AcDbEntity
  8
DATA
  6
Continuous
 62
     7
100
AcDbLine
 10
-554.1553200810942
 20
-199.434952507132
 30
0.0
 11
-550.3345904298937
 21
-199.434952507132
 31
0.0
  0
LINE
  5
311
330
47E
100
AcDbEntity
  8
DATA
  6
Continuous
 62
     7
100
AcDbLine
 10
-550.3345904298937
 20
-199.4349428303321
 30
0.0
 11
-550.3345904298937
 21
-200.3097836111324
 31
0.0
  0
LINE
  5
312
330
47E
100
AcDbEntity
  8
DATA
  6
Continuous
 62
     7
100
AcDbLine
 10
-553.7268313770941
 20
-201.2024684111321
 30
0.0
 11
-550.7630791338937
 21
-201.2024684111321
 31
0.0
  0
ARC
  5
313
330
47E
100
AcDbEntity
  8
DATA
  6
Continuous
 62
     7
100
AcDbCircle
 10
-553.5292891818942
 20
-195.754071969532
 30
0.0
 40
1.129087618798049
100
AcDbArc
 50
242.64039333286
 51
267.2230045500206
  0
ARC
  5
314
330
47E
100
AcDbEntity
  8
DATA
  6
Continuous
 62
     7
100
AcDbCircle
 10
-553.604932727494
 20
-206.4727633487323
 30
0.0
 40
0.675371766578175
100
AcDbArc
 50
179.7118487927509
 51
271.7759870056735
  0
ARC
  5
315
330
47E
100
AcDbEntity
  8
DATA
  6
Continuous
 62
     7
100
AcDbCircle
 10
-553.604932727494
 20
-206.4659702351323
 30
0.0
 40
0.6753683131384248
100
AcDbArc
 50
88.22401299430046
 51
180.2881512072283
  0
LINE
  5
316
330
47E
100
AcDbEntity
  8
DATA
  6
Continuous
 62
     7
100
AcDbLine
 10
-553.5125773482938
 20
-202.9164425807321
 30
0.0
 11
-550.9416257706941
 21
-202.9164425807321
 31
0.0
  0
LINE
  5
317
330
47E
100
AcDbEntity
  8
DATA
  6
Continuous
 62
     7
100
AcDbLine
 10
-549.4061982378936
 20
-199.4349428303321
 30
0.0
 11
-549.4061982378936
 21
-200.3097836111324
 31
0.0
  0
ARC
  5
318
330
47E
100
AcDbEntity
  8
DATA
  6
Continuous
 62
     7
100
AcDbCircle
 10
-553.2288535722941
 20
-201.0794569295322
 30
0.0
 40
1.841119010891324
100
AcDbArc
 50
183.8309816091106
 51
261.1351473098052
  0
LINE
  5
319
330
47E
100
AcDbEntity
  8
DATA
  6
Continuous
 62
     7
100
AcDbLine
 10
-545.3890779306943
 20
-195.0964559951321
 30
0.0
 11
-545.3890779306943
 21
-196.8818449487326
 31
0.0
  0
LINE
  5
31A
330
47E
100
AcDbEntity
  8
DATA
  6
Continuous
 62
     7
100
AcDbLine
 10
-545.3890779306943
 20
-191.5435317839324
 30
0.0
 11
-545.3890779306943
 21
-194.4180058703323
 31
0.0
  0
LINE
  5
31B
330
47E
100
AcDbEntity
  8
DATA
  6
Continuous
 62
     7
100
AcDbLine
 10
-545.3890779306943
 20
-203.9341129295321
 30
0.0
 11
-545.3890779306943
 21
-205.790916667132
 31
0.0
  0
LINE
  5
31C
330
47E
100
AcDbEntity
  8
DATA
  6
Continuous
 62
     7
100
AcDbLine
 10
-545.3890779306943
 20
-197.8102468175324
 30
0.0
 11
-545.389085762845
 21
-201.221115728737
 31
0.0
  0
LINE
  5
31D
330
47E
100
AcDbEntity
  8
DATA
  6
Continuous
 62
     7
100
AcDbLine
 10
-546.2996261034943
 20
-199.4349428303321
 30
0.0
 11
-546.2996261034943
 21
-200.3097836111324
 31
0.0
  0
ARC
  5
31E
330
47E
100
AcDbEntity
  8
DATA
  6
Continuous
 62
     7
100
AcDbCircle
 10
-547.223276663494
 20
-201.0978138191322
 30
0.0
 40
1.838330661480044
100
AcDbArc
 50
278.2269238590172
 51
356.1541266921565
  0
ARC
  5
31F
330
47E
100
AcDbEntity
  8
DATA
  6
Continuous
 62
     7
100
AcDbCircle
 10
-552.4583113153933
 20
-200.3201140427841
 30
0.0
 40
1.697040208328605
100
AcDbArc
 50
179.6512199376235
 51
192.8264828068766
  0
ARC
  5
320
330
47E
100
AcDbEntity
  8
DATA
  6
Continuous
 62
     7
100
AcDbCircle
 10
-553.1757863022622
 20
-200.5107185189913
 30
0.0
 40
0.955523910646076
100
AcDbArc
 50
191.2331036226565
 51
216.8620088940571
  0
ARC
  5
321
330
47E
100
AcDbEntity
  8
DATA
  6
Continuous
 62
     7
100
AcDbCircle
 10
-550.7938939795585
 20
-200.8955313114348
 30
0.0
 40
0.3084800445473241
100
AcDbArc
 50
275.7329807106047
 51
322.3580975024796
  0
ARC
  5
322
330
47E
100
AcDbEntity
  8
DATA
  6
Continuous
 62
     7
100
AcDbCircle
 10
-552.0315991955948
 20
-200.3201140427841
 30
0.0
 40
1.697040208328515
100
AcDbArc
 50
347.1735171931217
 51
0.3487800623765907
  0
ARC
  5
323
330
47E
100
AcDbEntity
  8
DATA
  6
Continuous
 62
     7
100
AcDbCircle
 10
-551.3141242087256
 20
-200.5107185189913
 30
0.0
 40
0.9555239106456999
100
AcDbArc
 50
323.1379911059648
 51
348.7668963773409
  0
ARC
  5
324
330
47E
100
AcDbEntity
  8
DATA
  6
Continuous
 62
     7
100
AcDbCircle
 10
-551.004921719494
 20
-201.9800379983321
 30
0.0
 40
0.9385413784560249
100
AcDbArc
 50
273.8670063598102
 51
358.3616345678824
  0
ARC
  5
325
330
47E
100
AcDbEntity
  8
DATA
  6
Continuous
 62
     7
100
AcDbCircle
 10
-549.1276999338936
 20
-201.9791767631323
 30
0.0
 40
0.939474005248315
100
AcDbArc
 50
181.6892821046501
 51
266.0782829826609
  0
ARC
  5
326
330
47E
100
AcDbEntity
  8
DATA
  6
Continuous
 62
     7
100
AcDbCircle
 10
-548.9468946882289
 20
-200.8955313114348
 30
0.0
 40
0.3084800445473747
100
AcDbArc
 50
217.6419024975205
 51
264.2670192893533
  0
ARC
  5
327
330
47E
100
AcDbEntity
  8
DATA
  6
Continuous
 62
     7
100
AcDbCircle
 10
-547.7091894721931
 20
-200.3201140427841
 30
0.0
 40
1.69704020832815
100
AcDbArc
 50
179.6512199376234
 51
192.82648280688
  0
ARC
  5
328
330
47E
100
AcDbEntity
  8
DATA
  6
Continuous
 62
     7
100
AcDbCircle
 10
-548.426664459062
 20
-200.5107185189913
 30
0.0
 40
0.9555239106458531
100
AcDbArc
 50
191.2331036226592
 51
216.8620088940652
  0
ARC
  5
329
330
47E
100
AcDbEntity
  8
DATA
  6
Continuous
 62
     7
100
AcDbCircle
 10
-546.7589296531589
 20
-200.8955313114348
 30
0.0
 40
0.3084800445473241
100
AcDbArc
 50
275.7329807106047
 51
322.3580975023868
  0
ARC
  5
32A
330
47E
100
AcDbEntity
  8
DATA
  6
Continuous
 62
     7
100
AcDbCircle
 10
-547.9966348691948
 20
-200.3201140427841
 30
0.0
 40
1.697040208328293
100
AcDbArc
 50
347.17351719312
 51
0.3487800623766475
  0
ARC
  5
32B
330
47E
100
AcDbEntity
  8
DATA
  6
Continuous
 62
     7
100
AcDbCircle
 10
-547.2791598823257
 20
-200.5107185189913
 30
0.0
 40
0.9555239106453361
100
AcDbArc
 50
323.1379911059483
 51
348.7668963773381
  0
ARC
  5
32C
330
47E
100
AcDbEntity
  8
DATA
  6
Continuous
 62
     7
100
AcDbCircle
 10
-550.0
 20
-200.0
 30
0.0
 40
144.0
100
AcDbArc
 50
174.6511881553193
 51
330.9387126725523
  0
CIRCLE
  5
32D
330
47E
100
AcDbEntity
  8
DATA
  6
Continuous
 62
     7
100
AcDbCircle
 10
-520.0
 20
-335.7239846158373
 30
0.0
 40
4.0
  0
CIRCLE
  5
32E
330
47E
100
AcDbEntity
  8
DATA
  6
Continuous
 62
     7
100
AcDbCircle
 10
-580.0
 20
-335.7239846158373
 30
0.0
 40
4.0
  0
ARC
  5
32F
330
47E
100
AcDbEntity
  8
DATA
  6
Continuous
 62
     7
100
AcDbCircle
 10
-519.9999999999997
 20
-336.3919347758816
 30
0.0
 40
5.999999999999592
100
AcDbArc
 50
19.87114779111956
 51
194.9651883646779
  0
LINE
  5
330
330
47E
100
AcDbEntity
  8
DATA
  6
Continuous
 62
     7
100
AcDbLine
 10
-514.3572435318003
 20
-334.35249871643
 30
0.0
 11
-513.0751299897784
 21
-339.1853224112665
 31
0.0
  0
LINE
  5
331
330
47E
100
AcDbEntity
  8
DATA
  6
Continuous
 62
     7
100
AcDbLine
 10
-525.7964974039696
 20
-337.9413275103961
 30
0.0
 11
-525.1136136085351
 21
-341.8332393072042
 31
0.0
  0
ARC
  5
332
330
47E
100
AcDbEntity
  8
DATA
  6
Continuous
 62
     7
100
AcDbCircle
 10
-579.8798835472812
 20
-336.4446833321509
 30
0.0
 40
6.000000000000221
100
AcDbArc
 50
355.3609498450102
 51
162.0945446087493
  0
LINE
  5
333
330
47E
100
AcDbEntity
  8
DATA
  6
Continuous
 62
     7
100
AcDbLine
 10
-573.8995396248558
 20
-336.9299529165187
 30
0.0
 11
-574.7592352948147
 21
-341.855490791213
 31
0.0
  0
LINE
  5
334
330
47E
100
AcDbEntity
  8
DATA
  6
Continuous
 62
     7
100
AcDbLine
 10
-585.589274355771
 20
-334.5999999999999
 30
0.0
 11
-586.8097317872305
 21
-339.2158167944726
 31
0.0
  0
LINE
  5
335
330
47E
100
AcDbEntity
  8
DATA
  6
Continuous
 62
     7
100
AcDbLine
 10
-520.0
 20
-333.7239846158372
 30
0.0
 11
-520.0
 21
-337.7239846158373
 31
0.0
  0
LINE
  5
336
330
47E
100
AcDbEntity
  8
DATA
  6
Continuous
 62
     7
100
AcDbLine
 10
-518.0
 20
-335.7239846158373
 30
0.0
 11
-522.0
 21
-335.7239846158373
 31
0.0
  0
LINE
  5
337
330
47E
100
AcDbEntity
  8
DATA
  6
Continuous
 62
     7
100
AcDbLine
 10
-580.0
 20
-333.7239846158372
 30
0.0
 11
-580.0
 21
-337.7239846158373
 31
0.0
  0
LINE
  5
338
330
47E
100
AcDbEntity
  8
DATA
  6
Continuous
 62
     7
100
AcDbLine
 10
-578.0
 20
-335.7585887403538
 30
0.0
 11
-582.0
 21
-335.7585887403538
 31
0.0
  0
LINE
  5
339
330
47E
100
AcDbEntity
  8
DATA
  6
Continuous
 62
     7
100
AcDbLine
 10
-555.4999999999999
 20
-264.7668896890996
 30
0.0
 11
-544.5
 21
-264.7668896890996
 31
0.0
  0
LINE
  5
33A
330
47E
100
AcDbEntity
  8
DATA
  6
Continuous
 62
     7
100
AcDbLine
 10
-555.4999999999999
 20
-264.7668896890996
 30
0.0
 11
-550.0
 21
-230.1999999999999
 31
0.0
  0
LINE
  5
33B
330
47E
100
AcDbEntity
  8
DATA
  6
Continuous
 62
     7
100
AcDbLine
 10
-544.5
 20
-264.7668896890996
 30
0.0
 11
-550.0
 21
-230.1999999999999
 31
0.0
  0
LINE
  5
33C
330
47E
100
AcDbEntity
  8
DATA
  6
Continuous
 62
     7
100
AcDbLine
 10
-508.2844615975398
 20
-249.9254436941674
 30
0.0
 11
-500.5062870044875
 21
-242.1472691011154
 31
0.0
  0
LINE
  5
33D
330
47E
100
AcDbEntity
  8
DATA
  6
Continuous
 62
     7
100
AcDbLine
 10
-508.2844615975398
 20
-249.9254436941674
 30
0.0
 11
-528.8378564047034
 21
-221.593874293952
 31
0.0
  0
LINE
  5
33E
330
47E
100
AcDbEntity
  8
DATA
  6
Continuous
 62
     7
100
AcDbLine
 10
-500.5062870044875
 20
-242.1472691011154
 30
0.0
 11
-528.8378564047034
 21
-221.593874293952
 31
0.0
  0
LINE
  5
33F
330
47E
100
AcDbEntity
  8
DATA
  6
Continuous
 62
     7
100
AcDbLine
 10
-600.0335106760803
 20
-241.5123209001863
 30
0.0
 11
-592.255336083028
 21
-249.2904954932383
 31
0.0
  0
LINE
  5
340
330
47E
100
AcDbEntity
  8
DATA
  6
Continuous
 62
     7
100
AcDbLine
 10
-600.0335106760803
 20
-241.5123209001863
 30
0.0
 11
-589.0356026608978
 21
-233.5337884618389
 31
0.0
  0
LINE
  5
341
330
47E
100
AcDbEntity
  8
DATA
  6
Continuous
 62
     7
100
AcDbLine
 10
-592.255336083028
 20
-249.2904954932383
 30
0.0
 11
-579.852061546135
 21
-232.1933572039743
 31
0.0
  0
ARC
  5
342
330
47E
100
AcDbEntity
  8
DATA
  6
Continuous
 62
     7
100
AcDbCircle
 10
-537.4769423986918
 20
-351.7634137943769
 30
0.0
 40
139.7909961944003
100
AcDbArc
 50
34.23192834980908
 51
84.48325268178356
  0
ARC
  5
343
330
47E
100
AcDbEntity
  8
DATA
  6
Continuous
 62
     7
100
AcDbCircle
 10
-600.8579885525549
 20
-120.4071676800895
 30
0.0
 40
113.7426970740056
100
AcDbArc
 50
212.8515104659731
 51
302.4365037742994
  0
ARC
  5
344
330
47E
100
AcDbEntity
  8
DATA
  6
Continuous
 62
     7
100
AcDbCircle
 10
-526.4413149963177
 20
-237.5041133626892
 30
0.0
 40
25.00000000000023
100
AcDbArc
 50
84.48325268178319
 51
122.4365037742987
  0
ARC
  5
345
330
47E
100
AcDbEntity
  8
DATA
  6
Continuous
 62
     7
100
AcDbCircle
 10
-549.9999999999998
 20
-199.9999999999996
 30
0.0
 40
130.0000000000004
100
AcDbArc
 50
212.9436836989016
 51
240.7313399503136
  0
ARC
  5
346
330
47E
100
AcDbEntity
  8
DATA
  6
Continuous
 62
     7
100
AcDbCircle
 10
-550.0
 20
-200.0
 30
0.0
 40
118.0
100
AcDbArc
 50
212.74462624308
 51
240.9939321328821
  0
LINE
  5
347
330
47E
100
AcDbEntity
  8
DATA
  6
Continuous
 62
     7
100
AcDbLine
 10
-606.1074420421193
 20
-311.1074420421192
 30
0.0
 11
-607.5776372781124
 21
-312.5776372781124
 31
0.0
  0
LINE
  5
348
330
47E
100
AcDbEntity
  8
DATA
  6
Continuous
 62
     7
100
AcDbLine
 10
-658.4362202937041
 20
-264.4412709275875
 30
0.0
 11
-656.9895728024826
 21
-262.9946234363661
 31
0.0
  0
ARC
  5
349
330
47E
100
AcDbEntity
  8
DATA
  6
Continuous
 62
     7
100
AcDbCircle
 10
-653.4540388965502
 20
-266.5301573422985
 30
0.0
 40
4.999999999999607
100
AcDbArc
 50
32.7446262430758
 51
135.0000000000018
  0
ARC
  5
34A
330
47E
100
AcDbEntity
  8
DATA
  6
Continuous
 62
     7
100
AcDbCircle
 10
-654.9006863877714
 20
-267.97680483352
 30
0.0
 40
4.999999999999718
100
AcDbArc
 50
135.0000000000018
 51
212.9436836989064
  0
ARC
  5
34B
330
47E
100
AcDbEntity
  8
DATA
  6
Continuous
 62
     7
100
AcDbCircle
 10
-609.6429759480522
 20
-307.5719081361863
 30
0.0
 40
5.0000000000002
100
AcDbArc
 50
315.0
 51
60.99393213287863
  0
ARC
  5
34C
330
47E
100
AcDbEntity
  8
DATA
  6
Continuous
 62
     7
100
AcDbCircle
 10
-611.1131711840466
 20
-309.0421033721777
 30
0.0
 40
5.000000000002751
100
AcDbArc
 50
240.7313399503397
 51
314.9999999999962
  0
ARC
  5
34D
330
47E
100
AcDbEntity
  8
DATA
  6
Continuous
 62
     7
100
AcDbCircle
 10
-549.7404243783287
 20
-200.8744272147314
 30
0.0
 40
130.0000000000005
100
AcDbArc
 50
180.6548555234888
 51
188.7313399503136
  0
ARC
  5
34E
330
47E
100
AcDbEntity
  8
DATA
  6
Continuous
 62
     7
100
AcDbCircle
 10
-549.7404243783291
 20
-200.874427214731
 30
0.0
 40
117.9999999999999
100
AcDbArc
 50
185.8236897877657
 51
188.9939321328821
  0
LINE
  5
34F
330
47E
100
AcDbEntity
  8
DATA
  6
Continuous
 62
     7
100
AcDbLine
 10
-671.8374740576548
 20
-225.0657312154867
 30
0.0
 11
-673.9011462815271
 21
-224.8123441276307
 31
0.0
  0
ARC
  5
350
330
47E
100
AcDbEntity
  8
DATA
  6
Continuous
 62
     7
100
AcDbCircle
 10
-671.2281273406289
 20
-220.10300045728
 30
0.0
 40
5.000000000000213
100
AcDbArc
 50
262.9999999999996
 51
8.993932132877576
  0
ARC
  5
351
330
47E
100
AcDbEntity
  8
DATA
  6
Continuous
 62
     7
100
AcDbCircle
 10
-673.2917995645009
 20
-219.8496133694221
 30
0.0
 40
5.000000000002629
100
AcDbArc
 50
188.7313399503408
 51
262.9999999999996
  0
LINE
  5
352
330
47E
100
AcDbEntity
  8
DATA
  6
Continuous
 62
     7
100
AcDbLine
 10
-302.1999999999996
 20
-33.5
 30
0.0
 11
-296.0
 21
-33.5
 31
0.0
  0
LINE
  5
353
330
47E
100
AcDbEntity
  8
DATA
  6
Continuous
 62
     7
100
AcDbLine
 10
-6.000000000000184
 20
-80.97033886052987
 30
0.0
 11
-6.000000000000184
 21
-319.0296611394701
 31
0.0
  0
LINE
  5
354
330
47E
100
AcDbEntity
  8
DATA
  6
Continuous
 62
     7
100
AcDbLine
 10
-296.0
 20
-33.5
 30
0.0
 11
-296.0
 21
-366.5
 31
0.0
  0
LINE
  5
355
330
47E
100
AcDbEntity
  8
DATA
  6
Continuous
 62
     7
100
AcDbLine
 10
18.99999999999981
 20
-191.2039420252981
 30
0.0
 11
18.99999999999981
 21
-208.7960579747014
 31
0.0
  0
LINE
  5
356
330
47E
100
AcDbEntity
  8
DATA
  6
Continuous
 62
     7
100
AcDbLine
 10
-350.0
 20
-87.5
 30
0.0
 11
-340.0
 21
-45.0
 31
0.0
  0
LINE
  5
357
330
47E
100
AcDbEntity
  8
DATA
  6
Continuous
 62
     7
100
AcDbLine
 10
-350.0
 20
-312.5
 30
0.0
 11
-340.0
 21
-355.0
 31
0.0
  0
LINE
  5
358
330
47E
100
AcDbEntity
  8
DATA
  6
Continuous
 62
     7
100
AcDbLine
 10
-350.0
 20
-87.5
 30
0.0
 11
-350.0
 21
-312.5
 31
0.0
  0
LINE
  5
359
330
47E
100
AcDbEntity
  8
DATA
  6
Continuous
 62
     7
100
AcDbLine
 10
-340.0
 20
-45.0
 30
0.0
 11
-340.0
 21
-355.0
 31
0.0
  0
ARC
  5
35A
330
47E
100
AcDbEntity
  8
DATA
  6
Continuous
 62
     7
100
AcDbCircle
 10
-291.2431005110745
 20
-137.3883304940336
 30
0.0
 40
104.4645339780348
100
AcDbArc
 50
96.02061643136229
 51
117.822346157759
  0
ARC
  5
35B
330
47E
100
AcDbEntity
  8
DATA
  6
Continuous
 62
     7
100
AcDbCircle
 10
-279.8877028593508
 20
-1235.835200927356
 30
0.0
 40
1202.443155208668
100
AcDbArc
 50
77.60122121210942
 51
90.76776540199869
  0
LINE
  5
35C
330
47E
100
AcDbEntity
  8
DATA
  6
Continuous
 62
     7
100
AcDbLine
 10
-302.1999999999996
 20
-366.5
 30
0.0
 11
-296.0
 21
-366.5
 31
0.0
  0
ARC
  5
35D
330
47E
100
AcDbEntity
  8
DATA
  6
Continuous
 62
     7
100
AcDbCircle
 10
-291.2431005110745
 20
-262.6116695059664
 30
0.0
 40
104.4645339780347
100
AcDbArc
 50
242.177653842241
 51
263.9793835686377
  0
ARC
  5
35E
330
47E
100
AcDbEntity
  8
DATA
  6
Continuous
 62
     7
100
AcDbCircle
 10
-279.8877028593509
 20
835.8352009273566
 30
0.0
 40
1202.443155208667
100
AcDbArc
 50
269.2322345980013
 51
282.3987787878905
  0
ARC
  5
35F
330
47E
100
AcDbEntity
  8
DATA
  6
Continuous
 62
     7
100
AcDbCircle
 10
-26.0000000000003
 20
-80.97033886052987
 30
0.0
 40
20.00000000000011
100
AcDbArc
 50
0.0
 51
77.60122121210907
  0
ARC
  5
360
330
47E
100
AcDbEntity
  8
DATA
  6
Continuous
 62
     7
100
AcDbCircle
 10
-26.00000000000024
 20
-319.0296611394701
 30
0.0
 40
20.00000000000009
100
AcDbArc
 50
282.3987787878908
 51
0.0
  0
LINE
  5
361
330
47E
100
AcDbEntity
  8
DATA
  6
Continuous
 62
     7
100
AcDbLine
 10
-6.000000000000184
 20
-166.0
 30
0.0
 11
0.5599112471409598
 21
-166.0
 31
0.0
  0
LINE
  5
362
330
47E
100
AcDbEntity
  8
DATA
  6
Continuous
 62
     7
100
AcDbLine
 10
0.5599112471409598
 20
-234.0
 30
0.0
 11
-6.000000000000184
 21
-234.0
 31
0.0
  0
LINE
  5
363
330
47E
100
AcDbEntity
  8
DATA
  6
Continuous
 62
     7
100
AcDbLine
 10
7.127315747138695
 20
-169.4317182515292
 30
0.0
 11
16.31388343749556
 21
-182.6384137469158
 31
0.0
  0
LINE
  5
364
330
47E
100
AcDbEntity
  8
DATA
  6
Continuous
 62
     7
100
AcDbLine
 10
7.127315747138695
 20
-230.5682817484708
 30
0.0
 11
16.31388343749556
 21
-217.3615862530841
 31
0.0
  0
CIRCLE
  5
365
330
47E
100
AcDbEntity
  8
DATA
  6
Continuous
 62
     7
100
AcDbCircle
 10
6.499999999999815
 20
-200.0
 30
0.0
 40
6.0
  0
CIRCLE
  5
366
330
47E
100
AcDbEntity
  8
DATA
  6
Continuous
 62
     7
100
AcDbCircle
 10
4.999999999999815
 20
-183.75
 30
0.0
 40
4.0
  0
CIRCLE
  5
367
330
47E
100
AcDbEntity
  8
DATA
  6
Continuous
 62
     7
100
AcDbCircle
 10
4.999999999999815
 20
-216.25
 30
0.0
 40
3.75
  0
ARC
  5
368
330
47E
100
AcDbEntity
  8
DATA
  6
Continuous
 62
     7
100
AcDbCircle
 10
3.999999999999815
 20
-191.2039420252981
 30
0.0
 40
15.0
100
AcDbArc
 50
0.0
 51
34.8224462827904
  0
ARC
  5
369
330
47E
100
AcDbEntity
  8
DATA
  6
Continuous
 62
     7
100
AcDbCircle
 10
3.999999999999815
 20
-208.7960579747014
 30
0.0
 40
15.00000000000023
100
AcDbArc
 50
325.1775537172081
 51
0.0
  0
ARC
  5
36A
330
47E
100
AcDbEntity
  8
DATA
  6
Continuous
 62
     7
100
AcDbCircle
 10
0.5599112471410166
 20
-174.0
 30
0.0
 40
8.000000000000062
100
AcDbArc
 50
34.8224462827919
 51
90.00000000000039
  0
ARC
  5
36B
330
47E
100
AcDbEntity
  8
DATA
  6
Continuous
 62
     7
100
AcDbCircle
 10
0.5599112471410166
 20
-226.0
 30
0.0
 40
8.0
100
AcDbArc
 50
269.9999999999996
 51
325.1775537172081
  0
LINE
  5
36C
330
47E
100
AcDbEntity
  8
DATA
  6
Continuous
 62
     7
100
AcDbLine
 10
-6.000000000000184
 20
-200.0
 30
0.0
 11
-258.0
 21
-200.0
 31
0.0
  0
LINE
  5
36D
330
47E
100
AcDbEntity
  8
DATA
  6
Continuous
 62
     7
100
AcDbLine
 10
-15.65100503297516
 20
-164.06299643384
 30
0.0
 11
-257.923244204406
 21
-155.602663415485
 31
0.0
  0
ARC
  5
36E
330
47E
100
AcDbEntity
  8
DATA
  6
Continuous
 62
     7
100
AcDbCircle
 10
-16.00000000000024
 20
-174.0569047040308
 30
0.0
 40
10.00000000000005
100
AcDbArc
 50
0.0
 51
87.99999999999956
  0
LINE
  5
36F
330
47E
100
AcDbEntity
  8
DATA
  6
Continuous
 62
     7
100
AcDbLine
 10
-15.65100503297516
 20
-124.06299643384
 30
0.0
 11
-257.923244204406
 21
-115.602663415485
 31
0.0
  0
ARC
  5
370
330
47E
100
AcDbEntity
  8
DATA
  6
Continuous
 62
     7
100
AcDbCircle
 10
-16.00000000000024
 20
-134.0569047040308
 30
0.0
 40
10.00000000000005
100
AcDbArc
 50
0.0
 51
87.99999999999956
  0
LINE
  5
371
330
47E
100
AcDbEntity
  8
DATA
  6
Continuous
 62
     7
100
AcDbLine
 10
-15.65100503297516
 20
-84.06299643384
 30
0.0
 11
-257.923244204406
 21
-75.60266341548505
 31
0.0
  0
ARC
  5
372
330
47E
100
AcDbEntity
  8
DATA
  6
Continuous
 62
     7
100
AcDbCircle
 10
-16.00000000000024
 20
-94.05690470403078
 30
0.0
 40
10.00000000000005
100
AcDbArc
 50
0.0
 51
87.99999999999956
  0
LINE
  5
373
330
47E
100
AcDbEntity
  8
DATA
  6
Continuous
 62
     7
100
AcDbLine
 10
-15.65100503297516
 20
-235.93700356616
 30
0.0
 11
-257.923244204406
 21
-244.3973365845154
 31
0.0
  0
ARC
  5
374
330
47E
100
AcDbEntity
  8
DATA
  6
Continuous
 62
     7
100
AcDbCircle
 10
-16.00000000000024
 20
-225.9430952959692
 30
0.0
 40
9.999999999999831
100
AcDbArc
 50
272.0000000000004
 51
0.0
  0
LINE
  5
375
330
47E
100
AcDbEntity
  8
DATA
  6
Continuous
 62
     7
100
AcDbLine
 10
-15.65100503297516
 20
-275.9370035661604
 30
0.0
 11
-257.923244204406
 21
-284.3973365845149
 31
0.0
  0
ARC
  5
376
330
47E
100
AcDbEntity
  8
DATA
  6
Continuous
 62
     7
100
AcDbCircle
 10
-16.00000000000024
 20
-265.9430952959692
 30
0.0
 40
10.00000000000029
100
AcDbArc
 50
272.0000000000004
 51
0.0
  0
LINE
  5
377
330
47E
100
AcDbEntity
  8
DATA
  6
Continuous
 62
     7
100
AcDbLine
 10
-15.65100503297516
 20
-315.9370035661605
 30
0.0
 11
-257.923244204406
 21
-324.3973365845149
 31
0.0
  0
ARC
  5
378
330
47E
100
AcDbEntity
  8
DATA
  6
Continuous
 62
     7
100
AcDbCircle
 10
-16.00000000000024
 20
-305.9430952959692
 30
0.0
 40
10.00000000000029
100
AcDbArc
 50
272.0000000000004
 51
0.0
  0
LINE
  5
379
330
47E
100
AcDbEntity
  8
DATA
  6
Continuous
 62
     7
100
AcDbLine
 10
-350.5
 20
-189.5
 30
0.0
 11
-350.0
 21
-189.5
 31
0.0
  0
LINE
  5
37A
330
47E
100
AcDbEntity
  8
DATA
  6
Continuous
 62
     7
100
AcDbLine
 10
-350.5
 20
-210.5
 30
0.0
 11
-350.0
 21
-210.5
 31
0.0
  0
LINE
  5
37B
330
47E
100
AcDbEntity
  8
DATA
  6
Continuous
 62
     7
100
AcDbLine
 10
-350.5
 20
-189.5
 30
0.0
 11
-350.5
 21
-210.5
 31
0.0
  0
CIRCLE
  5
37C
330
47E
100
AcDbEntity
  8
DATA
  6
Continuous
 62
     7
100
AcDbCircle
 10
275.0
 20
-200.0
 30
0.0
 40
166.4999999999999
  0
LINE
  5
37D
330
47E
100
AcDbEntity
  8
DATA
  6
Continuous
 62
     7
100
AcDbLine
 10
274.0
 20
-166.0
 30
0.0
 11
276.0
 21
-166.0
 31
0.0
  0
LINE
  5
37E
330
47E
100
AcDbEntity
  8
DATA
  6
Continuous
 62
     7
100
AcDbLine
 10
274.0
 20
-234.0
 30
0.0
 11
274.0
 21
-166.0
 31
0.0
  0
LINE
  5
37F
330
47E
100
AcDbEntity
  8
DATA
  6
Continuous
 62
     7
100
AcDbLine
 10
276.0
 20
-234.0
 30
0.0
 11
274.0
 21
-234.0
 31
0.0
  0
LINE
  5
380
330
47E
100
AcDbEntity
  8
DATA
  6
Continuous
 62
     7
100
AcDbLine
 10
276.0
 20
-166.0
 30
0.0
 11
276.0
 21
-234.0
 31
0.0
  0
LINE
  5
381
330
47E
100
AcDbEntity
  8
DATA
  6
Continuous
 62
     7
100
AcDbLine
 10
265.9966009139896
 20
-238.0
 30
0.0
 11
217.821281894807
 21
-238.0
 31
0.0
  0
LINE
  5
382
330
47E
100
AcDbEntity
  8
DATA
  6
Continuous
 62
     7
100
AcDbLine
 10
217.821281894807
 20
-162.0
 30
0.0
 11
265.9966009139896
 21
-162.0
 31
0.0
  0
ARC
  5
383
330
47E
100
AcDbEntity
  8
DATA
  6
Continuous
 62
     7
100
AcDbCircle
 10
275.1363636363637
 20
-200.0
 30
0.0
 40
71.13636363636384
100
AcDbArc
 50
150.0681822303628
 51
209.9318177696372
  0
LINE
  5
384
330
47E
100
AcDbEntity
  8
DATA
  6
Continuous
 62
     7
100
AcDbLine
 10
332.7176690685237
 20
-246.5
 30
0.0
 11
271.9966009139896
 21
-246.5
 31
0.0
  0
LINE
  5
385
330
47E
100
AcDbEntity
  8
DATA
  6
Continuous
 62
     7
100
AcDbLine
 10
271.9966009139896
 20
-153.5
 30
0.0
 11
332.7176690685237
 21
-153.5
 31
0.0
  0
LINE
  5
386
330
47E
100
AcDbEntity
  8
DATA
  6
Continuous
 62
     7
100
AcDbLine
 10
268.9966009139896
 20
-159.0
 30
0.0
 11
268.9966009139896
 21
-156.5
 31
0.0
  0
LINE
  5
387
330
47E
100
AcDbEntity
  8
DATA
  6
Continuous
 62
     7
100
AcDbLine
 10
268.9966009139896
 20
-241.0
 30
0.0
 11
268.9966009139896
 21
-243.5
 31
0.0
  0
ARC
  5
388
330
47E
100
AcDbEntity
  8
DATA
  6
Continuous
 62
     7
100
AcDbCircle
 10
232.8875000000003
 20
-200.0
 30
0.0
 40
113.1124999999998
100
AcDbArc
 50
337.4270509877267
 51
22.5729490122734
  0
ARC
  5
389
330
47E
100
AcDbEntity
  8
DATA
  6
Continuous
 62
     7
100
AcDbCircle
 10
332.7176690685237
 20
-158.4999999999999
 30
0.0
 40
5.000000000000028
100
AcDbArc
 50
22.57294901227126
 51
90.0
  0
ARC
  5
38A
330
47E
100
AcDbEntity
  8
DATA
  6
Continuous
 62
     7
100
AcDbCircle
 10
332.7176690685237
 20
-241.5
 30
0.0
 40
5.0
100
AcDbArc
 50
270.0
 51
337.4270509877283
  0
ARC
  5
38B
330
47E
100
AcDbEntity
  8
DATA
  6
Continuous
 62
     7
100
AcDbCircle
 10
217.821281894807
 20
-166.9999999999999
 30
0.0
 40
5.0
100
AcDbArc
 50
90.0
 51
150.0681822303613
  0
ARC
  5
38C
330
47E
100
AcDbEntity
  8
DATA
  6
Continuous
 62
     7
100
AcDbCircle
 10
217.821281894807
 20
-233.0
 30
0.0
 40
5.000000000000096
100
AcDbArc
 50
209.9318177696386
 51
270.0
  0
ARC
  5
38D
330
47E
100
AcDbEntity
  8
DATA
  6
Continuous
 62
     7
100
AcDbCircle
 10
271.9966009139896
 20
-156.4999999999999
 30
0.0
 40
3.0
100
AcDbArc
 50
90.0
 51
180.0
  0
ARC
  5
38E
330
47E
100
AcDbEntity
  8
DATA
  6
Continuous
 62
     7
100
AcDbCircle
 10
271.9966009139896
 20
-243.5
 30
0.0
 40
3.0
100
AcDbArc
 50
180.0
 51
270.0
  0
ARC
  5
38F
330
47E
100
AcDbEntity
  8
DATA
  6
Continuous
 62
     7
100
AcDbCircle
 10
265.9966009139896
 20
-241.0
 30
0.0
 40
3.0
100
AcDbArc
 50
0.0
 51
90.0
  0
ARC
  5
390
330
47E
100
AcDbEntity
  8
DATA
  6
Continuous
 62
     7
100
AcDbCircle
 10
265.9966009139896
 20
-158.9999999999999
 30
0.0
 40
3.0
100
AcDbArc
 50
270.0
 51
0.0
  0
CIRCLE
  5
391
330
47E
100
AcDbEntity
  8
DATA
  6
Continuous
 62
     7
100
AcDbCircle
 10
290.0
 20
-162.9999999999999
 30
0.0
 40
3.5
  0
LWPOLYLINE
  5
392
330
47E
100
AcDbEntity
  8
DATA
  6
Continuous
 62
     7
100
AcDbPolyline
 90
        6
 70
     1
 43
0.0
 10
291.3000000000001
 20
-163.0
 10
290.6499999999999
 20
-161.8741669750802
 10
289.35
 20
-161.8741669750802
 10
288.7
 20
-163.0
 10
289.35
 20
-164.1258330249197
 10
290.6499999999999
 20
-164.1258330249197
  0
CIRCLE
  5
39B
330
47E
100
AcDbEntity
  8
DATA
  6
Continuous
 62
     7
100
AcDbCircle
 10
290.0
 20
-237.0
 30
0.0
 40
3.5
  0
LWPOLYLINE
  5
39C
330
47E
100
AcDbEntity
  8
DATA
  6
Continuous
 62
     7
100
AcDbPolyline
 90
        6
 70
     1
 43
0.0
 10
291.3000000000001
 20
-237.0
 10
290.6499999999999
 20
-235.8741669750803
 10
289.35
 20
-235.8741669750803
 10
288.7
 20
-237.0
 10
289.35
 20
-238.1258330249197
 10
290.6499999999999
 20
-238.1258330249197
  0
LINE
  5
3A5
330
47E
100
AcDbEntity
  8
DATA
  6
Continuous
 62
     7
100
AcDbLine
 10
258.9664182034485
 20
-206.0
 30
0.0
 11
258.9664182034485
 21
-194.0
 31
0.0
  0
LINE
  5
3A6
330
47E
100
AcDbEntity
  8
DATA
  6
Continuous
 62
     7
100
AcDbLine
 10
249.9664182034484
 20
-206.0
 30
0.0
 11
258.9664182034485
 21
-206.0
 31
0.0
  0
LINE
  5
3A7
330
47E
100
AcDbEntity
  8
DATA
  6
Continuous
 62
     7
100
AcDbLine
 10
249.9664182034484
 20
-194.0
 30
0.0
 11
258.9664182034485
 21
-194.0
 31
0.0
  0
LINE
  5
3A8
330
47E
100
AcDbEntity
  8
DATA
  6
Continuous
 62
     7
100
AcDbLine
 10
249.9664182034484
 20
-206.0
 30
0.0
 11
249.9664182034484
 21
-194.0
 31
0.0
  0
LWPOLYLINE
  5
3A9
330
47E
100
AcDbEntity
  8
DATA
  6
Continuous
 62
     7
100
AcDbPolyline
 90
        4
 70
     1
 43
0.0
 10
253.9664182034484
 20
-197.0
 10
254.9664182034485
 20
-197.0
 10
254.9664182034485
 20
-198.0
 10
253.9664182034484
 20
-198.0
  0
LWPOLYLINE
  5
3B0
330
47E
100
AcDbEntity
  8
DATA
  6
Continuous
 62
     7
100
AcDbPolyline
 90
        4
 70
     1
 43
0.0
 10
253.9664182034484
 20
-202.0
 10
254.9664182034485
 20
-202.0
 10
254.9664182034485
 20
-203.0
 10
253.9664182034484
 20
-203.0
  0
LINE
  5
3B7
330
47E
100
AcDbEntity
  8
DATA
  6
Continuous
 62
     7
100
AcDbLine
 10
262.7664182034485
 20
-201.8082026507986
 30
0.0
 11
262.7664182034485
 21
-203.8082026507986
 31
0.0
  0
LINE
  5
3B8
330
47E
100
AcDbEntity
  8
DATA
  6
Continuous
 62
     7
100
AcDbLine
 10
261.7664182034485
 20
-197.1917973492013
 30
0.0
 11
263.7664182034485
 21
-197.1917973492013
 31
0.0
  0
LINE
  5
3B9
330
47E
100
AcDbEntity
  8
DATA
  6
Continuous
 62
     7
100
AcDbLine
 10
262.7664182034485
 20
-196.1917973492013
 30
0.0
 11
262.7664182034485
 21
-198.1917973492013
 31
0.0
  0
LINE
  5
3BA
330
47E
100
AcDbEntity
  8
DATA
  6
Continuous
 62
     7
100
AcDbLine
 10
251.4664182034485
 20
-194.5999999999999
 30
0.0
 11
257.4664182034485
 21
-194.5999999999999
 31
0.0
  0
LINE
  5
3BB
330
47E
100
AcDbEntity
  8
DATA
  6
Continuous
 62
     7
100
AcDbLine
 10
251.4664182034485
 20
-205.4000000000001
 30
0.0
 11
257.4664182034485
 21
-205.4000000000001
 31
0.0
  0
LINE
  5
3BC
330
47E
100
AcDbEntity
  8
DATA
  6
Continuous
 62
     7
100
AcDbLine
 10
257.4664182034485
 20
-205.4000000000001
 30
0.0
 11
257.4664182034485
 21
-194.5999999999999
 31
0.0
  0
LINE
  5
3BD
330
47E
100
AcDbEntity
  8
DATA
  6
Continuous
 62
     7
100
AcDbLine
 10
251.4664182034485
 20
-205.4000000000001
 30
0.0
 11
251.4664182034485
 21
-204.8999999999996
 31
0.0
  0
LINE
  5
3BE
330
47E
100
AcDbEntity
  8
DATA
  6
Continuous
 62
     7
100
AcDbLine
 10
251.4664182034485
 20
-200.5000000000004
 30
0.0
 11
251.4664182034485
 21
-199.4999999999996
 31
0.0
  0
LINE
  5
3BF
330
47E
100
AcDbEntity
  8
DATA
  6
Continuous
 62
     7
100
AcDbLine
 10
251.4664182034485
 20
-195.1000000000004
 30
0.0
 11
251.4664182034485
 21
-194.5999999999999
 31
0.0
  0
LINE
  5
3C0
330
47E
100
AcDbEntity
  8
DATA
  6
Continuous
 62
     7
100
AcDbLine
 10
251.4664182034485
 20
-194.5999999999999
 30
0.0
 11
251.4664182034485
 21
-195.1000000000004
 31
0.0
  0
LINE
  5
3C1
330
47E
100
AcDbEntity
  8
DATA
  6
Continuous
 62
     7
100
AcDbLine
 10
251.4664182034485
 20
-199.4999999999996
 30
0.0
 11
251.4664182034485
 21
-200.0
 31
0.0
  0
ARC
  5
3C2
330
47E
100
AcDbEntity
  8
DATA
  6
Continuous
 62
     7
100
AcDbCircle
 10
253.0671324891627
 20
-197.3000000000001
 30
0.0
 40
2.7207142857145
100
AcDbArc
 50
126.0395385635507
 51
233.9604614364436
  0
ARC
  5
3C3
330
47E
100
AcDbEntity
  8
DATA
  6
Continuous
 62
     7
100
AcDbCircle
 10
253.0671324891627
 20
-202.6999999999998
 30
0.0
 40
2.720714285714132
100
AcDbArc
 50
126.0395385635564
 51
233.9604614364493
  0
LINE
  5
3C4
330
47E
100
AcDbEntity
  8
DATA
  6
Continuous
 62
     7
100
AcDbLine
 10
222.9664182034485
 20
-206.0
 30
0.0
 11
222.9664182034485
 21
-194.0
 31
0.0
  0
LINE
  5
3C5
330
47E
100
AcDbEntity
  8
DATA
  6
Continuous
 62
     7
100
AcDbLine
 10
213.9664182034485
 20
-206.0
 30
0.0
 11
222.9664182034485
 21
-206.0
 31
0.0
  0
LINE
  5
3C6
330
47E
100
AcDbEntity
  8
DATA
  6
Continuous
 62
     7
100
AcDbLine
 10
213.9664182034485
 20
-194.0
 30
0.0
 11
222.9664182034485
 21
-194.0
 31
0.0
  0
LINE
  5
3C7
330
47E
100
AcDbEntity
  8
DATA
  6
Continuous
 62
     7
100
AcDbLine
 10
213.9664182034485
 20
-206.0
 30
0.0
 11
213.9664182034485
 21
-194.0
 31
0.0
  0
LWPOLYLINE
  5
3C8
330
47E
100
AcDbEntity
  8
DATA
  6
Continuous
 62
     7
100
AcDbPolyline
 90
        4
 70
     1
 43
0.0
 10
217.9664182034485
 20
-197.0
 10
218.9664182034484
 20
-197.0
 10
218.9664182034484
 20
-198.0
 10
217.9664182034485
 20
-198.0
  0
LWPOLYLINE
  5
3CF
330
47E
100
AcDbEntity
  8
DATA
  6
Continuous
 62
     7
100
AcDbPolyline
 90
        4
 70
     1
 43
0.0
 10
217.9664182034485
 20
-202.0
 10
218.9664182034484
 20
-202.0
 10
218.9664182034484
 20
-203.0
 10
217.9664182034485
 20
-203.0
  0
LINE
  5
3D6
330
47E
100
AcDbEntity
  8
DATA
  6
Continuous
 62
     7
100
AcDbLine
 10
226.7664182034485
 20
-201.8082026507986
 30
0.0
 11
226.7664182034485
 21
-203.8082026507986
 31
0.0
  0
LINE
  5
3D7
330
47E
100
AcDbEntity
  8
DATA
  6
Continuous
 62
     7
100
AcDbLine
 10
225.7664182034485
 20
-197.1917973492013
 30
0.0
 11
227.7664182034485
 21
-197.1917973492013
 31
0.0
  0
LINE
  5
3D8
330
47E
100
AcDbEntity
  8
DATA
  6
Continuous
 62
     7
100
AcDbLine
 10
226.7664182034485
 20
-196.1917973492013
 30
0.0
 11
226.7664182034485
 21
-198.1917973492013
 31
0.0
  0
LINE
  5
3D9
330
47E
100
AcDbEntity
  8
DATA
  6
Continuous
 62
     7
100
AcDbLine
 10
215.4664182034485
 20
-194.5999999999999
 30
0.0
 11
221.4664182034485
 21
-194.5999999999999
 31
0.0
  0
LINE
  5
3DA
330
47E
100
AcDbEntity
  8
DATA
  6
Continuous
 62
     7
100
AcDbLine
 10
215.4664182034485
 20
-205.4000000000001
 30
0.0
 11
221.4664182034485
 21
-205.4000000000001
 31
0.0
  0
LINE
  5
3DB
330
47E
100
AcDbEntity
  8
DATA
  6
Continuous
 62
     7
100
AcDbLine
 10
221.4664182034485
 20
-205.4000000000001
 30
0.0
 11
221.4664182034485
 21
-194.5999999999999
 31
0.0
  0
LINE
  5
3DC
330
47E
100
AcDbEntity
  8
DATA
  6
Continuous
 62
     7
100
AcDbLine
 10
215.4664182034485
 20
-205.4000000000001
 30
0.0
 11
215.4664182034485
 21
-204.8999999999996
 31
0.0
  0
LINE
  5
3DD
330
47E
100
AcDbEntity
  8
DATA
  6
Continuous
 62
     7
100
AcDbLine
 10
215.4664182034485
 20
-200.5000000000004
 30
0.0
 11
215.4664182034485
 21
-199.4999999999996
 31
0.0
  0
LINE
  5
3DE
330
47E
100
AcDbEntity
  8
DATA
  6
Continuous
 62
     7
100
AcDbLine
 10
215.4664182034485
 20
-195.1000000000004
 30
0.0
 11
215.4664182034485
 21
-194.5999999999999
 31
0.0
  0
LINE
  5
3DF
330
47E
100
AcDbEntity
  8
DATA
  6
Continuous
 62
     7
100
AcDbLine
 10
215.4664182034485
 20
-194.5999999999999
 30
0.0
 11
215.4664182034485
 21
-195.1000000000004
 31
0.0
  0
LINE
  5
3E0
330
47E
100
AcDbEntity
  8
DATA
  6
Continuous
 62
     7
100
AcDbLine
 10
215.4664182034485
 20
-199.4999999999996
 30
0.0
 11
215.4664182034485
 21
-200.0
 31
0.0
  0
ARC
  5
3E1
330
47E
100
AcDbEntity
  8
DATA
  6
Continuous
 62
     7
100
AcDbCircle
 10
217.0671324891627
 20
-197.3000000000001
 30
0.0
 40
2.7207142857145
100
AcDbArc
 50
126.0395385635507
 51
233.9604614364436
  0
ARC
  5
3E2
330
47E
100
AcDbEntity
  8
DATA
  6
Continuous
 62
     7
100
AcDbCircle
 10
217.0671324891627
 20
-202.6999999999998
 30
0.0
 40
2.720714285714132
100
AcDbArc
 50
126.0395385635564
 51
233.9604614364493
  0
TEXT
  5
3E3
330
47E
100
AcDbEntity
  8
DATA
 62
     7
100
AcDbText
 10
295.54
 20
-200.7083333333334
 30
0.0
 40
5.429470486111111
  1
C67HC/T
 50
90.0
 41
0.7
 11
290.1105295138889
 21
-200.7083333333334
 31
0.0
100
AcDbText
 73
     3
  0
CIRCLE
  5
3E4
330
47E
100
AcDbEntity
  8
DATA
  6
Continuous
 62
     7
100
AcDbCircle
 10
332.1923716474031
 20
-200.0
 30
0.0
 40
10.08152640000026
  0
TEXT
  5
3E5
330
47E
100
AcDbEntity
  8
DATA
 62
     7
100
AcDbText
 10
323.8612612922013
 20
-204.3634586127604
 30
0.0
 40
2.394759064414063
  1
30
 50
13.99999999999999
 41
0.7
 11
323.2819166398337
 21
-202.0398341270988
 31
0.0
100
AcDbText
 73
     3
  0
TEXT
  5
3E6
330
47E
100
AcDbEntity
  8
DATA
 62
     7
100
AcDbText
 10
338.0522940217815
 20
-203.3923458821266
 30
0.0
 40
2.394759064414063
  1
30
 50
355.0
 41
0.7
 11
338.2610110267421
 21
-201.0066995989501
 31
0.0
100
AcDbText
 73
     3
  0
TEXT
  5
3E7
330
47E
100
AcDbEntity
  8
DATA
 62
     7
100
AcDbText
 10
333.2167227114946
 20
-210.1471861405533
 30
0.0
 40
2.394759064414063
  1
8Ω
 50
90.0
 41
0.7
 11
330.8219636470806
 21
-210.1471861405533
 31
0.0
100
AcDbText
 73
     3
  0
TEXT
  5
3E8
330
47E
100
AcDbEntity
  8
DATA
 62
     7
100
AcDbText
 10
333.3846244992877
 20
-194.541816799357
 30
0.0
 40
2.394759064414063
  1
8Ω
 50
90.0
 41
0.7
 11
330.9898654348736
 21
-194.541816799357
 31
0.0
100
AcDbText
 73
     3
  0
TEXT
  5
3E9
330
47E
100
AcDbEntity
  8
DATA
 62
     7
100
AcDbText
 10
335.2923221700858
 20
-206.6922238141229
 30
0.0
 40
2.394759064414063
  1
15
 50
329.9999999999999
 41
0.7
 11
336.4897017022928
 21
-204.6183016283973
 31
0.0
100
AcDbText
 73
     3
  0
CIRCLE
  5
3EA
330
47E
100
AcDbEntity
  8
DATA
  6
Continuous
 62
     7
100
AcDbCircle
 10
337.1000000000001
 20
-192.9999999999999
 30
0.0
 40
0.5240783107433798
  0
TEXT
  5
3EB
330
47E
100
AcDbEntity
  8
DATA
 62
     7
100
AcDbText
 10
325.164446767635
 20
-193.2839325837868
 30
0.0
 40
2.394759064414063
  1
7.5
 50
300.0
 41
0.7
 11
327.2383689533606
 21
-192.0865530515798
 31
0.0
100
AcDbText
 73
     3
  0
TEXT
  5
3EC
330
47E
100
AcDbEntity
  8
DATA
 62
     7
100
AcDbText
 10
322.4821850474319
 20
-197.7447007695905
 30
0.0
 40
2.394759064414063
  1
15
 50
329.9999999999999
 41
0.7
 11
323.679564579639
 21
-195.6707785838649
 31
0.0
100
AcDbText
 73
     3
  0
TEXT
  5
3ED
330
47E
100
AcDbEntity
  8
DATA
 62
     7
100
AcDbText
 10
326.7126317912858
 20
-208.0532108886909
 30
0.0
 40
2.394759064414063
  1
60
 50
30.00000000000003
 41
0.7
 11
325.5152522590787
 21
-205.9792887029653
 31
0.0
100
AcDbText
 73
     3
  0
TEXT
  5
3EE
330
47E
100
AcDbEntity
  8
DATA
 62
     7
100
AcDbText
 10
338.2210203123016
 20
-198.591087674146
 30
0.0
 40
2.394759064414063
  1
60
 50
20.00000000000002
 41
0.7
 11
337.4019644738603
 21
-196.3407502527559
 31
0.0
100
AcDbText
 73
     3
  0
LWPOLYLINE
  5
3EF
330
47E
100
AcDbEntity
  8
DATA
  6
Continuous
 62
     7
100
AcDbPolyline
 90
        4
 70
     1
 43
0.0
 10
330.2947822937461
 20
-195.7715703361932
 10
331.8833207514929
 20
-195.4914681461996
 10
333.4238827964585
 20
-204.2284296638068
 10
331.8353443387117
 20
-204.5085318538004
  0
LINE
  5
3F6
330
47E
100
AcDbEntity
  8
DATA
  6
Continuous
 62
     7
100
AcDbLine
 10
331.1842190074029
 20
-187.0452385759999
 30
0.0
 11
332.192371647403
 21
-189.0615438559998
 31
0.0
  0
LINE
  5
3F7
330
47E
100
AcDbEntity
  8
DATA
  6
Continuous
 62
     7
100
AcDbLine
 10
332.192371647403
 20
-189.0615438559998
 30
0.0
 11
333.2005242874028
 21
-187.0452385759999
 31
0.0
  0
LINE
  5
3F8
330
47E
100
AcDbEntity
  8
DATA
  6
Continuous
 62
     7
100
AcDbLine
 10
331.1842190074029
 20
-187.0452385759999
 30
0.0
 11
333.2005242874028
 21
-187.0452385759999
 31
0.0
  0
LINE
  5
3F9
330
47E
100
AcDbEntity
  8
DATA
  6
Continuous
 62
     7
100
AcDbLine
 10
331.1842190074029
 20
-212.954761424
 30
0.0
 11
332.192371647403
 21
-210.9384561440001
 31
0.0
  0
LINE
  5
3FA
330
47E
100
AcDbEntity
  8
DATA
  6
Continuous
 62
     7
100
AcDbLine
 10
332.192371647403
 20
-210.9384561440001
 30
0.0
 11
333.2005242874028
 21
-212.954761424
 31
0.0
  0
LINE
  5
3FB
330
47E
100
AcDbEntity
  8
DATA
  6
Continuous
 62
     7
100
AcDbLine
 10
331.1842190074029
 20
-212.954761424
 30
0.0
 11
333.2005242874028
 21
-212.954761424
 31
0.0
  0
TEXT
  5
3FC
330
47E
100
AcDbEntity
  8
DATA
 62
     7
100
AcDbText
 10
327.8304191624457
 20
-198.6765392288812
 30
0.0
 40
2.394759064414063
  1
70V
 50
280.0
 41
0.7
 11
330.1887964556769
 21
-198.2606936813944
 31
0.0
100
AcDbText
 73
     3
  0
TEXT
  5
3FD
330
47E
100
AcDbEntity
  8
DATA
 62
     7
100
AcDbText
 10
332.6419263198197
 20
-196.5882487459227
 30
0.0
 40
2.394759064414063
  1
100V
 50
279.9999999999999
 41
0.7
 11
335.0003036130509
 21
-196.1724031984359
 31
0.0
100
AcDbText
 73
     3
  0
LINE
  5
3FE
330
47E
100
AcDbEntity
  8
DATA
  6
Continuous
 62
     7
100
AcDbLine
 10
398.8102374202609
 20
-251.2273958325085
 30
0.0
 11
409.0
 21
-200.0
 31
0.0
  0
LINE
  5
3FF
330
47E
100
AcDbEntity
  8
DATA
  6
Continuous
 62
     7
100
AcDbLine
 10
369.7922486633812
 20
-294.6558850270177
 30
0.0
 11
398.8102374202609
 21
-251.2273958325085
 31
0.0
  0
LINE
  5
400
330
47E
100
AcDbEntity
  8
DATA
  6
Continuous
 62
     7
100
AcDbLine
 10
326.3637594688725
 20
-323.6738737838968
 30
0.0
 11
369.7922486633812
 21
-294.6558850270177
 31
0.0
  0
LINE
  5
401
330
47E
100
AcDbEntity
  8
DATA
  6
Continuous
 62
     7
100
AcDbLine
 10
275.1363636363637
 20
-333.863636363636
 30
0.0
 11
326.3637594688725
 21
-323.6738737838968
 31
0.0
  0
LINE
  5
402
330
47E
100
AcDbEntity
  8
DATA
  6
Continuous
 62
     7
100
AcDbLine
 10
223.9089678038551
 20
-323.6738737838968
 30
0.0
 11
275.1363636363637
 21
-333.863636363636
 31
0.0
  0
LINE
  5
403
330
47E
100
AcDbEntity
  8
DATA
  6
Continuous
 62
     7
100
AcDbLine
 10
180.4804786093464
 20
-294.6558850270177
 30
0.0
 11
223.9089678038551
 21
-323.6738737838968
 31
0.0
  0
LINE
  5
404
330
47E
100
AcDbEntity
  8
DATA
  6
Continuous
 62
     7
100
AcDbLine
 10
151.4624898524665
 20
-251.2273958325085
 30
0.0
 11
180.4804786093464
 21
-294.6558850270177
 31
0.0
  0
LINE
  5
405
330
47E
100
AcDbEntity
  8
DATA
  6
Continuous
 62
     7
100
AcDbLine
 10
141.2727272727274
 20
-200.0
 30
0.0
 11
151.4624898524665
 21
-251.2273958325085
 31
0.0
  0
LINE
  5
406
330
47E
100
AcDbEntity
  8
DATA
  6
Continuous
 62
     7
100
AcDbLine
 10
151.4624898524665
 20
-148.7726041674914
 30
0.0
 11
141.2727272727274
 21
-200.0
 31
0.0
  0
LINE
  5
407
330
47E
100
AcDbEntity
  8
DATA
  6
Continuous
 62
     7
100
AcDbLine
 10
180.4804786093464
 20
-105.3441149729824
 30
0.0
 11
151.4624898524665
 21
-148.7726041674914
 31
0.0
  0
LINE
  5
408
330
47E
100
AcDbEntity
  8
DATA
  6
Continuous
 62
     7
100
AcDbLine
 10
223.9089678038552
 20
-76.32612621610268
 30
0.0
 11
180.4804786093464
 21
-105.3441149729824
 31
0.0
  0
LINE
  5
409
330
47E
100
AcDbEntity
  8
DATA
  6
Continuous
 62
     7
100
AcDbLine
 10
275.1363636363637
 20
-66.13636363636397
 30
0.0
 11
223.9089678038552
 21
-76.32612621610268
 31
0.0
  0
LINE
  5
40A
330
47E
100
AcDbEntity
  8
DATA
  6
Continuous
 62
     7
100
AcDbLine
 10
326.3637594688725
 20
-76.32612621610268
 30
0.0
 11
275.1363636363637
 21
-66.13636363636397
 31
0.0
  0
LINE
  5
40B
330
47E
100
AcDbEntity
  8
DATA
  6
Continuous
 62
     7
100
AcDbLine
 10
369.7922486633812
 20
-105.3441149729829
 30
0.0
 11
326.3637594688725
 21
-76.32612621610268
 31
0.0
  0
LINE
  5
40C
330
47E
100
AcDbEntity
  8
DATA
  6
Continuous
 62
     7
100
AcDbLine
 10
398.8102374202611
 20
-148.7726041674914
 30
0.0
 11
369.7922486633812
 21
-105.3441149729829
 31
0.0
  0
LINE
  5
40D
330
47E
100
AcDbEntity
  8
DATA
  6
Continuous
 62
     7
100
AcDbLine
 10
409.0
 20
-200.0
 30
0.0
 11
398.8102374202611
 21
-148.7726041674914
 31
0.0
  0
ENDSEC
  0
SECTION
  2
OBJECTS
  0
DICTIONARY
  5
41B
330
0
100
AcDbDictionary
281
     1
  3
ACAD_CIP_PREVIOUS_PRODUCT_INFO
350
497
  3
ACAD_COLOR
350
471
  3
ACAD_DETAILVIEWSTYLE
350
478
  3
ACAD_GROUP
350
41C
  3
ACAD_LAYOUT
350
470
  3
ACAD_MATERIAL
350
41F
  3
ACAD_MLEADERSTYLE
350
474
  3
ACAD_MLINESTYLE
350
46D
  3
ACAD_PLOTSETTINGS
350
46F
  3
ACAD_PLOTSTYLENAME
350
41D
  3
ACAD_SCALELIST
350
451
  3
ACAD_SECTIONVIEWSTYLE
350
476
  3
ACAD_TABLESTYLE
350
472
  3
ACAD_VISUALSTYLE
350
438
  3
ACDB_RECOMPOSE_DATA
350
4B1
  3
AcDbVariableDictionary
350
4A4
  3
DWGPROPS
350
4B2
  0
DICTIONARY
  5
498
330
463
100
AcDbDictionary
280
     1
281
     1
  3
ADSK_XREC_LAYER_RECONCILED
360
499
  0
DICTIONARY
  5
49A
330
482
100
AcDbDictionary
280
     1
281
     1
  3
ADSK_XREC_LAYER_RECONCILED
360
49B
  0
DICTIONARY
  5
49C
330
48E
100
AcDbDictionary
280
     1
281
     1
  3
ADSK_XREC_LAYER_RECONCILED
360
49D
  0
DICTIONARY
  5
49E
330
48F
100
AcDbDictionary
280
     1
281
     1
  3
ADSK_XREC_LAYER_RECONCILED
360
49F
  0
DICTIONARY
  5
4A0
330
490
100
AcDbDictionary
280
     1
281
     1
  3
ADSK_XREC_LAYER_RECONCILED
360
4A1
  0
DICTIONARY
  5
4A2
330
491
100
AcDbDictionary
280
     1
281
     1
  3
ADSK_XREC_LAYER_RECONCILED
360
4A3
  0
XRECORD
  5
497
102
{ACAD_REACTORS
330
41B
102
}
330
41B
100
AcDbXrecord
280
     1
300
ACDLT
300
2017
300
ACDLT_F_S
  0
DICTIONARY
  5
471
102
{ACAD_REACTORS
330
41B
102
}
330
41B
100
AcDbDictionary
281
     1
  0
DICTIONARY
  5
478
102
{ACAD_REACTORS
330
41B
102
}
330
41B
100
AcDbDictionary
281
     1
  3
Imperial24
350
479
  0
DICTIONARY
  5
41C
102
{ACAD_REACTORS
330
41B
102
}
330
41B
100
AcDbDictionary
281
     1
  0
DICTIONARY
  5
470
102
{ACAD_REACTORS
330
41B
102
}
330
41B
100
AcDbDictionary
281
     1
  3
Model
350
481
  3
レイアウト1
350
47D
  0
DICTIONARY
  5
41F
102
{ACAD_REACTORS
330
41B
102
}
330
41B
100
AcDbDictionary
281
     1
  3
ByBlock
350
428
  3
ByLayer
350
420
  3
Global
350
430
  0
DICTIONARY
  5
474
102
{ACAD_REACTORS
330
41B
102
}
330
41B
100
AcDbDictionary
281
     1
  3
Standard
350
475
  0
DICTIONARY
  5
46D
102
{ACAD_REACTORS
330
41B
102
}
330
41B
100
AcDbDictionary
281
     1
  3
Standard
350
46E
  0
DICTIONARY
  5
46F
102
{ACAD_REACTORS
330
41B
102
}
330
41B
100
AcDbDictionary
281
     1
  0
ACDBDICTIONARYWDFLT
  5
41D
102
{ACAD_REACTORS
330
41B
102
}
330
41B
100
AcDbDictionary
281
     1
  3
Normal
350
41E
100
AcDbDictionaryWithDefault
340
41E
  0
DICTIONARY
  5
451
102
{ACAD_REACTORS
330
41B
102
}
330
41B
100
AcDbDictionary
281
     1
  3
A0
350
452
  3
A1
350
453
  3
A2
350
454
  3
A3
350
455
  3
A4
350
456
  3
A5
350
457
  3
A6
350
458
  3
A7
350
459
  3
A8
350
45A
  3
A9
350
45B
  3
B0
350
45C
  3
B1
350
45D
  3
B2
350
45E
  3
B3
350
45F
  3
B4
350
460
  3
B5
350
461
  3
B6
350
462
  0
DICTIONARY
  5
476
102
{ACAD_REACTORS
330
41B
102
}
330
41B
100
AcDbDictionary
281
     1
  3
Imperial24
350
477
  0
DICTIONARY
  5
472
102
{ACAD_REACTORS
330
41B
102
}
330
41B
100
AcDbDictionary
281
     1
  3
Standard
350
473
  0
DICTIONARY
  5
438
102
{ACAD_REACTORS
330
41B
102
}
330
41B
100
AcDbDictionary
281
     1
  3
2dWireframe
350
43E
  3
Basic
350
43D
  3
Brighten
350
444
  3
ColorChange
350
448
  3
Conceptual
350
441
  3
Dim
350
443
  3
EdgeColorOff
350
450
  3
Facepattern
350
447
  3
Flat
350
439
  3
FlatWithEdges
350
43A
  3
Gouraud
350
43B
  3
GouraudWithEdges
350
43C
  3
Hidden
350
440
  3
JitterOff
350
44E
  3
Linepattern
350
446
  3
OverhangOff
350
44F
  3
Realistic
350
442
  3
Shaded
350
44D
  3
Shaded with edges
350
44C
  3
Shades of Gray
350
449
  3
Sketchy
350
44A
  3
Thicken
350
445
  3
Wireframe
350
43F
  3
X-Ray
350
44B
  0
XRECORD
  5
4B1
102
{ACAD_REACTORS
330
41B
102
}
330
41B
100
AcDbXrecord
280
     1
 90
        1
330
473
  0
DICTIONARY
  5
4A4
102
{ACAD_REACTORS
330
41B
102
}
330
41B
100
AcDbDictionary
281
     1
  3
CANNOSCALE
350
4A9
  3
CMLEADERSTYLE
350
4A6
  3
CTABLESTYLE
350
4A5
  3
CVIEWDETAILSTYLE
350
4A7
  3
CVIEWSECTIONSTYLE
350
4A8
  3
DIMASSOC
350
4AC
  3
INDEXCTL
350
4AB
  3
SORTENTS
350
4AA
  3
XCLIPFRAME
350
4AD
  0
XRECORD
  5
4B2
102
{ACAD_REACTORS
330
41B
102
}
330
41B
100
AcDbXrecord
280
     1
  1
DWGPROPS COOKIE
  2

  3

  4

  6

  7

  8
sasaki_n
  9

300
=
301
=
302
=
303
=
304
=
305
=
306
=
307
=
308
=
309
=
 40
0.0003240740740741
 41
2457823.50025463
 42
2457823.549189815
  1

 90
        0
  0
XRECORD
  5
499
102
{ACAD_REACTORS
330
498
102
}
330
498
100
AcDbXrecord
280
     1
290
     1
  0
XRECORD
  5
49B
102
{ACAD_REACTORS
330
49A
102
}
330
49A
100
AcDbXrecord
280
     1
290
     1
  0
XRECORD
  5
49D
102
{ACAD_REACTORS
330
49C
102
}
330
49C
100
AcDbXrecord
280
     1
290
     1
  0
XRECORD
  5
49F
102
{ACAD_REACTORS
330
49E
102
}
330
49E
100
AcDbXrecord
280
     1
290
     1
  0
XRECORD
  5
4A1
102
{ACAD_REACTORS
330
4A0
102
}
330
4A0
100
AcDbXrecord
280
     1
290
     1
  0
XRECORD
  5
4A3
102
{ACAD_REACTORS
330
4A2
102
}
330
4A2
100
AcDbXrecord
280
     1
290
     1
  0
ACDBDETAILVIEWSTYLE
  5
479
102
{ACAD_XDICTIONARY
360
4EA
102
}
102
{ACAD_REACTORS
330
478
102
}
330
478
100
AcDbModelDocViewStyle
 70
     0
  3
Imperial24
290
     0
100
AcDbDetailViewStyle
 70
     0
 71
     0
 90
        3
 71
     1
340
464
 40
0.24
340
0
 40
0.24
300

 40
0.36
280
     3
 71
     2
340
46B
 90
       25
 71
     3
340
464
 40
0.24
 90
        1
 40
0.75
 90
        1
300
%<\AcVar ViewType \f "%tc1">% %<\AcVar ViewDetailId>%\PSCALE %<\AcVar ViewScale \f "%sn">%
 71
     4
340
46B
 90
       25
340
46B
 90
       25
280
     0
  0
LAYOUT
  5
481
102
{ACAD_XDICTIONARY
360
4EE
102
}
102
{ACAD_REACTORS
330
470
102
}
330
470
100
AcDbPlotSettings
  1

  2
DocuPrint 3000-2
  4

  6

 40
0.0
 41
0.0
 42
0.0
 43
0.0
 44
0.0
 45
0.0
 46
0.0
 47
0.0
 48
0.0
 49
0.0
140
0.0
141
0.0
142
1.0
143
1.0
 70
  1712
 72
     0
 73
     0
 74
     0
  7

 75
     0
147
1.0
148
0.0
149
0.0
100
AcDbLayout
  1
Model
 70
     1
 71
     0
 10
0.0
 20
0.0
 11
12.0
 21
9.0
 12
0.0
 22
0.0
 32
0.0
 14
0.0
 24
0.0
 34
0.0
 15
0.0
 25
0.0
 35
0.0
146
0.0
 13
0.0
 23
0.0
 33
0.0
 16
1.0
 26
0.0
 36
0.0
 17
0.0
 27
1.0
 37
0.0
 76
     0
330
47E
331
483
  0
LAYOUT
  5
47D
102
{ACAD_XDICTIONARY
360
4EC
102
}
102
{ACAD_REACTORS
330
470
102
}
330
470
100
AcDbPlotSettings
  1

  2
DocuPrint 3000-2
  4

  6

 40
0.0
 41
0.0
 42
0.0
 43
0.0
 44
0.0
 45
0.0
 46
0.0
 47
0.0
 48
0.0
 49
0.0
140
0.0
141
0.0
142
1.0
143
1.0
 70
   688
 72
     0
 73
     0
 74
     5
  7

 75
    16
147
1.0
148
0.0
149
0.0
100
AcDbLayout
  1
レイアウト1
 70
     0
 71
     1
 10
0.0
 20
0.0
 11
12.0
 21
9.0
 12
0.0
 22
0.0
 32
0.0
 14
1.000000000000000E+20
 24
1.000000000000000E+20
 34
1.000000000000000E+20
 15
-1.000000000000000E+20
 25
-1.000000000000000E+20
 35
-1.000000000000000E+20
146
0.0
 13
0.0
 23
0.0
 33
0.0
 16
1.0
 26
0.0
 36
0.0
 17
0.0
 27
1.0
 37
0.0
 76
     0
330
47A
  0
MATERIAL
  5
428
102
{ACAD_XDICTIONARY
360
429
102
}
102
{ACAD_REACTORS
330
41F
102
}
330
41F
100
AcDbMaterial
  1
ByBlock
 72
     0
 43
0.0208333333333333
 43
0.0
 43
0.0
 43
0.0
 43
0.0
 43
0.0208333333333333
 43
0.0
 43
0.0
 43
0.0
 43
0.0
 43
1.0
 43
0.0
 43
0.0
 43
0.0
 43
0.0
 43
1.0
 77
     0
 47
0.0208333333333333
 47
0.0
 47
0.0
 47
0.0
 47
0.0
 47
0.0208333333333333
 47
0.0
 47
0.0
 47
0.0
 47
0.0
 47
1.0
 47
0.0
 47
0.0
 47
0.0
 47
0.0
 47
1.0
171
     0
 49
0.0208333333333333
 49
0.0
 49
0.0
 49
0.0
 49
0.0
 49
0.0208333333333333
 49
0.0
 49
0.0
 49
0.0
 49
0.0
 49
1.0
 49
0.0
 49
0.0
 49
0.0
 49
0.0
 49
1.0
175
     0
142
0.0208333333333333
142
0.0
142
0.0
142
0.0
142
0.0
142
0.0208333333333333
142
0.0
142
0.0
142
0.0
142
0.0
142
1.0
142
0.0
142
0.0
142
0.0
142
0.0
142
1.0
179
     0
144
0.0208333333333333
144
0.0
144
0.0
144
0.0
144
0.0
144
0.0208333333333333
144
0.0
144
0.0
144
0.0
144
0.0
144
1.0
144
0.0
144
0.0
144
0.0
144
0.0
144
1.0
147
0.0208333333333333
147
0.0
147
0.0
147
0.0
147
0.0
147
0.0208333333333333
147
0.0
147
0.0
147
0.0
147
0.0
147
1.0
147
0.0
147
0.0
147
0.0
147
0.0
147
1.0
  0
MATERIAL
  5
420
102
{ACAD_XDICTIONARY
360
421
102
}
102
{ACAD_REACTORS
330
41F
102
}
330
41F
100
AcDbMaterial
  1
ByLayer
 72
     0
 43
0.0208333333333333
 43
0.0
 43
0.0
 43
0.0
 43
0.0
 43
0.0208333333333333
 43
0.0
 43
0.0
 43
0.0
 43
0.0
 43
1.0
 43
0.0
 43
0.0
 43
0.0
 43
0.0
 43
1.0
 77
     0
 47
0.0208333333333333
 47
0.0
 47
0.0
 47
0.0
 47
0.0
 47
0.0208333333333333
 47
0.0
 47
0.0
 47
0.0
 47
0.0
 47
1.0
 47
0.0
 47
0.0
 47
0.0
 47
0.0
 47
1.0
171
     0
 49
0.0208333333333333
 49
0.0
 49
0.0
 49
0.0
 49
0.0
 49
0.0208333333333333
 49
0.0
 49
0.0
 49
0.0
 49
0.0
 49
1.0
 49
0.0
 49
0.0
 49
0.0
 49
0.0
 49
1.0
175
     0
142
0.0208333333333333
142
0.0
142
0.0
142
0.0
142
0.0
142
0.0208333333333333
142
0.0
142
0.0
142
0.0
142
0.0
142
1.0
142
0.0
142
0.0
142
0.0
142
0.0
142
1.0
179
     0
144
0.0208333333333333
144
0.0
144
0.0
144
0.0
144
0.0
144
0.0208333333333333
144
0.0
144
0.0
144
0.0
144
0.0
144
1.0
144
0.0
144
0.0
144
0.0
144
0.0
144
1.0
147
0.0208333333333333
147
0.0
147
0.0
147
0.0
147
0.0
147
0.0208333333333333
147
0.0
147
0.0
147
0.0
147
0.0
147
1.0
147
0.0
147
0.0
147
0.0
147
0.0
147
1.0
  0
MATERIAL
  5
430
102
{ACAD_XDICTIONARY
360
431
102
}
102
{ACAD_REACTORS
330
41F
102
}
330
41F
100
AcDbMaterial
  1
Global
 72
     0
 43
0.0208333333333333
 43
0.0
 43
0.0
 43
0.0
 43
0.0
 43
0.0208333333333333
 43
0.0
 43
0.0
 43
0.0
 43
0.0
 43
1.0
 43
0.0
 43
0.0
 43
0.0
 43
0.0
 43
1.0
 77
     0
 47
0.0208333333333333
 47
0.0
 47
0.0
 47
0.0
 47
0.0
 47
0.0208333333333333
 47
0.0
 47
0.0
 47
0.0
 47
0.0
 47
1.0
 47
0.0
 47
0.0
 47
0.0
 47
0.0
 47
1.0
171
     0
 49
0.0208333333333333
 49
0.0
 49
0.0
 49
0.0
 49
0.0
 49
0.0208333333333333
 49
0.0
 49
0.0
 49
0.0
 49
0.0
 49
1.0
 49
0.0
 49
0.0
 49
0.0
 49
0.0
 49
1.0
175
     0
142
0.0208333333333333
142
0.0
142
0.0
142
0.0
142
0.0
142
0.0208333333333333
142
0.0
142
0.0
142
0.0
142
0.0
142
1.0
142
0.0
142
0.0
142
0.0
142
0.0
142
1.0
179
     0
144
0.0208333333333333
144
0.0
144
0.0
144
0.0
144
0.0
144
0.0208333333333333
144
0.0
144
0.0
144
0.0
144
0.0
144
1.0
144
0.0
144
0.0
144
0.0
144
0.0
144
1.0
147
0.0208333333333333
147
0.0
147
0.0
147
0.0
147
0.0
147
0.0208333333333333
147
0.0
147
0.0
147
0.0
147
0.0
147
1.0
147
0.0
147
0.0
147
0.0
147
0.0
147
1.0
  0
MLEADERSTYLE
  5
475
102
{ACAD_REACTORS
330
474
102
}
330
474
100
AcDbMLeaderStyle
170
     2
171
     1
172
     0
 90
        2
 40
0.0
 41
0.0
173
     1
 91
-1056964608
340
469
 92
       -2
290
     1
 42
0.09
291
     1
 43
0.36
  3
Standard
 44
0.18
300

342
464
174
     1
178
     6
175
     1
176
     0
 93
-1056964608
 45
0.18
292
     0
297
     0
 46
0.18
 94
-1056964608
 47
1.0
 49
1.0
140
1.0
293
     1
141
0.0
294
     1
177
     0
142
1.0
295
     0
296
     0
143
0.125
1001
ACAD_MLEADERVER
1070
     2
  0
MLINESTYLE
  5
46E
102
{ACAD_REACTORS
330
46D
102
}
330
46D
100
AcDbMlineStyle
  2
STANDARD
 70
     0
  3

 62
   256
 51
90.0
 52
90.0
 71
     2
 49
0.5
 62
   256
  6
BYLAYER
 49
-0.5
 62
   256
  6
BYLAYER
  0
ACDBPLACEHOLDER
  5
41E
102
{ACAD_REACTORS
330
41D
102
}
330
41D
  0
SCALE
  5
452
102
{ACAD_REACTORS
330
451
102
}
330
451
100
AcDbScale
 70
     0
300
1:1
140
1.0
141
1.0
290
     1
  0
SCALE
  5
453
102
{ACAD_REACTORS
330
451
102
}
330
451
100
AcDbScale
 70
     0
300
1/128" = 1'-0"
140
0.0078125
141
12.0
290
     0
  0
SCALE
  5
454
102
{ACAD_REACTORS
330
451
102
}
330
451
100
AcDbScale
 70
     0
300
1/64" = 1'-0"
140
0.015625
141
12.0
290
     0
  0
SCALE
  5
455
102
{ACAD_REACTORS
330
451
102
}
330
451
100
AcDbScale
 70
     0
300
1/32" = 1'-0"
140
0.03125
141
12.0
290
     0
  0
SCALE
  5
456
102
{ACAD_REACTORS
330
451
102
}
330
451
100
AcDbScale
 70
     0
300
1/16" = 1'-0"
140
0.0625
141
12.0
290
     0
  0
SCALE
  5
457
102
{ACAD_REACTORS
330
451
102
}
330
451
100
AcDbScale
 70
     0
300
3/32" = 1'-0"
140
0.09375
141
12.0
290
     0
  0
SCALE
  5
458
102
{ACAD_REACTORS
330
451
102
}
330
451
100
AcDbScale
 70
     0
300
1/8" = 1'-0"
140
0.125
141
12.0
290
     0
  0
SCALE
  5
459
102
{ACAD_REACTORS
330
451
102
}
330
451
100
AcDbScale
 70
     0
300
3/16" = 1'-0"
140
0.1875
141
12.0
290
     0
  0
SCALE
  5
45A
102
{ACAD_REACTORS
330
451
102
}
330
451
100
AcDbScale
 70
     0
300
1/4" = 1'-0"
140
0.25
141
12.0
290
     0
  0
SCALE
  5
45B
102
{ACAD_REACTORS
330
451
102
}
330
451
100
AcDbScale
 70
     0
300
3/8" = 1'-0"
140
0.375
141
12.0
290
     0
  0
SCALE
  5
45C
102
{ACAD_REACTORS
330
451
102
}
330
451
100
AcDbScale
 70
     0
300
1/2" = 1'-0"
140
0.5
141
12.0
290
     0
  0
SCALE
  5
45D
102
{ACAD_REACTORS
330
451
102
}
330
451
100
AcDbScale
 70
     0
300
3/4" = 1'-0"
140
0.75
141
12.0
290
     0
  0
SCALE
  5
45E
102
{ACAD_REACTORS
330
451
102
}
330
451
100
AcDbScale
 70
     0
300
1" = 1'-0"
140
1.0
141
12.0
290
     0
  0
SCALE
  5
45F
102
{ACAD_REACTORS
330
451
102
}
330
451
100
AcDbScale
 70
     0
300
1-1/2" = 1'-0"
140
1.5
141
12.0
290
     0
  0
SCALE
  5
460
102
{ACAD_REACTORS
330
451
102
}
330
451
100
AcDbScale
 70
     0
300
3" = 1'-0"
140
3.0
141
12.0
290
     0
  0
SCALE
  5
461
102
{ACAD_REACTORS
330
451
102
}
330
451
100
AcDbScale
 70
     0
300
6" = 1'-0"
140
6.0
141
12.0
290
     0
  0
SCALE
  5
462
102
{ACAD_REACTORS
330
451
102
}
330
451
100
AcDbScale
 70
     0
300
1'-0" = 1'-0"
140
12.0
141
12.0
290
     0
  0
ACDBSECTIONVIEWSTYLE
  5
477
102
{ACAD_XDICTIONARY
360
4E8
102
}
102
{ACAD_REACTORS
330
476
102
}
330
476
100
AcDbModelDocViewStyle
 70
     0
  3
Imperial24
290
     0
100
AcDbSectionViewStyle
 70
     0
 71
     0
 90
       78
 71
     1
340
464
 40
0.24
340
0
340
0
 40
0.24
300
I, O, Q, S, X, Z
 40
0.48
 90
        3
 40
0.18
 90
        1
 71
     2
340
46B
 90
       25
340
46B
 90
       50
 40
0.24
 40
0.0
 40
0.24
 71
     3
340
464
 40
0.24
 90
        1
 40
0.75
 90
        1
300
%<\AcVar ViewType \f "%tc1">% %<\AcVar ViewSectionStartId>%-%<\AcVar ViewSectionEndId>%\PSCALE %<\AcVar ViewScale \f "%sn">%
 71
     4
300
ANSI31
 40
1.0
 90
        0
290
     0
290
     0
 90
        6
 40
0.0
 40
1.570796326794896
 40
0.2617993877991494
 40
1.308996938995747
 40
-0.2617993877991494
 40
1.832595714594046
  0
TABLESTYLE
  5
473
102
{ACAD_XDICTIONARY
360
4AF
102
}
102
{ACAD_REACTORS
330
472
102
}
330
472
100
AcDbTableStyle
  3
Standard
 70
     0
 71
     0
 40
0.06
 41
0.06
280
     0
281
     0
  7
STANDARD
140
0.18
170
     2
 62
     0
 63
     7
283
     0
274
    -2
284
     1
 64
     0
275
    -2
285
     1
 65
     0
276
    -2
286
     1
 66
     0
277
    -2
287
     1
 67
     0
278
    -2
288
     1
 68
     0
279
    -2
289
     1
 69
     0
  7
STANDARD
140
0.25
170
     5
 62
     0
 63
     7
283
     0
274
    -2
284
     1
 64
     0
275
    -2
285
     1
 65
     0
276
    -2
286
     1
 66
     0
277
    -2
287
     1
 67
     0
278
    -2
288
     1
 68
     0
279
    -2
289
     1
 69
     0
  7
STANDARD
140
0.18
170
     5
 62
     0
 63
     7
283
     0
274
    -2
284
     1
 64
     0
275
    -2
285
     1
 65
     0
276
    -2
286
     1
 66
     0
277
    -2
287
     1
 67
     0
278
    -2
288
     1
 68
     0
279
    -2
289
     1
 69
     0
  0
VISUALSTYLE
  5
43E
102
{ACAD_XDICTIONARY
360
4C0
102
}
102
{ACAD_REACTORS
330
438
102
}
330
438
100
AcDbVisualStyle
  2
2dWireframe
 70
     4
 71
     0
 72
     2
 73
     0
 90
        0
 40
-0.6
 41
-30.0
 62
     5
 63
     7
 74
     1
 91
        4
 64
     7
 65
   257
 75
     1
175
     1
 42
1.0
 92
        0
 66
   257
 43
1.0
 76
     1
 77
     6
 78
     2
 67
     7
 79
     5
170
     0
171
     0
290
     0
174
     0
 93
        1
 44
0.0
173
     0
291
     0
 45
0.0
1001
ACAD
1000
AcDbSavedByObjectVersion
1070
     0
  0
VISUALSTYLE
  5
43D
102
{ACAD_XDICTIONARY
360
4BE
102
}
102
{ACAD_REACTORS
330
438
102
}
330
438
100
AcDbVisualStyle
  2
Basic
 70
     7
 71
     1
 72
     0
 73
     1
 90
        0
 40
-0.6
 41
-30.0
 62
     5
 63
     7
 74
     0
 91
        4
 64
     7
 65
   257
 75
     1
175
     1
 42
1.0
 92
        8
 66
     7
 43
1.0
 76
     1
 77
     6
 78
     2
 67
     7
 79
     5
170
     0
171
     0
290
     0
174
     0
 93
        1
 44
0.0
173
     0
291
     1
 45
0.0
1001
ACAD
1000
AcDbSavedByObjectVersion
1070
     0
  0
VISUALSTYLE
  5
444
102
{ACAD_XDICTIONARY
360
4CC
102
}
102
{ACAD_REACTORS
330
438
102
}
330
438
100
AcDbVisualStyle
  2
Brighten
 70
    12
 71
     2
 72
     2
 73
     0
 90
        0
 40
-0.6
 41
-30.0
 62
     5
 63
     7
 74
     1
 91
        4
 64
     7
 65
   257
 75
     1
175
     1
 42
1.0
 92
        8
 66
     7
 43
1.0
 76
     1
 77
     6
 78
     2
 67
     7
 79
     5
170
     0
171
     0
290
     0
174
     0
 93
        1
 44
50.0
173
     0
291
     1
 45
0.0
1001
ACAD
1000
AcDbSavedByObjectVersion
1070
     0
  0
VISUALSTYLE
  5
448
102
{ACAD_XDICTIONARY
360
4D4
102
}
102
{ACAD_REACTORS
330
438
102
}
330
438
100
AcDbVisualStyle
  2
ColorChange
 70
    16
 71
     2
 72
     2
 73
     3
 90
        0
 40
-0.6
 41
-30.0
 62
     5
 63
     8
 74
     1
 91
        4
 64
     7
 65
   257
 75
     1
175
     1
 42
1.0
 92
        8
 66
     8
 43
1.0
 76
     1
 77
     6
 78
     2
 67
     7
 79
     5
170
     0
171
     0
290
     0
174
     0
 93
        1
 44
0.0
173
     0
291
     1
 45
0.0
1001
ACAD
1000
AcDbSavedByObjectVersion
1070
     0
  0
VISUALSTYLE
  5
441
102
{ACAD_XDICTIONARY
360
4C6
102
}
102
{ACAD_REACTORS
330
438
102
}
330
438
100
AcDbVisualStyle
  2
Conceptual
 70
     9
 71
     3
 72
     2
 73
     0
 90
        0
 40
-0.6
 41
-30.0
 62
     5
 63
     7
 74
     2
 91
        2
 64
     7
 65
   257
 75
     1
175
     1
 42
179.0
 92
        8
 66
     7
 43
1.0
 76
     1
 77
     6
 78
     2
 67
     7
 79
     3
170
     0
171
     0
290
     0
174
     0
 93
        1
 44
0.0
173
     0
291
     0
 45
0.0
1001
ACAD
1000
AcDbSavedByObjectVersion
1070
     0
  0
VISUALSTYLE
  5
443
102
{ACAD_XDICTIONARY
360
4CA
102
}
102
{ACAD_REACTORS
330
438
102
}
330
438
100
AcDbVisualStyle
  2
Dim
 70
    11
 71
     2
 72
     2
 73
     0
 90
        0
 40
-0.6
 41
-30.0
 62
     5
 63
     7
 74
     1
 91
        4
 64
     7
 65
   257
 75
     1
175
     1
 42
1.0
 92
        8
 66
     7
 43
1.0
 76
     1
 77
     6
 78
     2
 67
     7
 79
     5
170
     0
171
     0
290
     0
174
     0
 93
        1
 44
-50.0
173
     0
291
     1
 45
0.0
1001
ACAD
1000
AcDbSavedByObjectVersion
1070
     0
  0
VISUALSTYLE
  5
450
102
{ACAD_XDICTIONARY
360
4E4
102
}
102
{ACAD_REACTORS
330
438
102
}
330
438
100
AcDbVisualStyle
  2
EdgeColorOff
 70
    22
 71
     2
 72
     2
 73
     0
 90
        0
 40
-0.6
 41
-30.0
 62
     5
 63
     7
 74
     1
 91
        4
 64
     7
 65
   257
 75
     1
175
     1
 42
1.0
 92
        8
 66
     7
 43
1.0
 76
     1
 77
     6
 78
     2
 67
     7
 79
     5
170
     0
171
     0
290
     0
174
     0
 93
        1
 44
0.0
173
     0
291
     1
 45
0.0
1001
ACAD
1000
AcDbSavedByObjectVersion
1070
     0
  0
VISUALSTYLE
  5
447
102
{ACAD_XDICTIONARY
360
4D2
102
}
102
{ACAD_REACTORS
330
438
102
}
330
438
100
AcDbVisualStyle
  2
Facepattern
 70
    15
 71
     2
 72
     2
 73
     0
 90
        0
 40
-0.6
 41
-30.0
 62
     5
 63
     7
 74
     1
 91
        4
 64
     7
 65
   257
 75
     1
175
     1
 42
1.0
 92
        8
 66
     7
 43
1.0
 76
     1
 77
     6
 78
     2
 67
     7
 79
     5
170
     0
171
     0
290
     0
174
     0
 93
        1
 44
0.0
173
     0
291
     1
 45
0.0
1001
ACAD
1000
AcDbSavedByObjectVersion
1070
     0
  0
VISUALSTYLE
  5
439
102
{ACAD_XDICTIONARY
360
4B6
102
}
102
{ACAD_REACTORS
330
438
102
}
330
438
100
AcDbVisualStyle
  2
Flat
 70
     0
 71
     2
 72
     1
 73
     1
 90
        2
 40
-0.6
 41
30.0
 62
     5
 63
     7
 74
     0
 91
        0
 64
     7
 65
   257
 75
     1
175
     1
 42
1.0
 92
        8
 66
     7
 43
1.0
 76
     1
 77
     6
 78
     2
 67
     7
 79
     5
170
     0
171
     0
290
     0
174
     0
 93
       13
 44
0.0
173
     0
291
     1
 45
0.0
1001
ACAD
1000
AcDbSavedByObjectVersion
1070
     0
  0
VISUALSTYLE
  5
43A
102
{ACAD_XDICTIONARY
360
4B8
102
}
102
{ACAD_REACTORS
330
438
102
}
330
438
100
AcDbVisualStyle
  2
FlatWithEdges
 70
     1
 71
     2
 72
     1
 73
     1
 90
        2
 40
-0.6
 41
30.0
 62
     5
 63
     7
 74
     1
 91
        0
 64
     7
 65
   257
 75
     1
175
     1
 42
1.0
 92
        0
 66
   257
 43
1.0
 76
     1
 77
     6
 78
     2
 67
     7
 79
     5
170
     0
171
     0
290
     0
174
     0
 93
       13
 44
0.0
173
     0
291
     1
 45
0.0
1001
ACAD
1000
AcDbSavedByObjectVersion
1070
     0
  0
VISUALSTYLE
  5
43B
102
{ACAD_XDICTIONARY
360
4BA
102
}
102
{ACAD_REACTORS
330
438
102
}
330
438
100
AcDbVisualStyle
  2
Gouraud
 70
     2
 71
     2
 72
     2
 73
     1
 90
        2
 40
-0.6
 41
30.0
 62
     5
 63
     7
 74
     0
 91
        0
 64
     7
 65
   257
 75
     1
175
     1
 42
1.0
 92
        0
 66
     7
 43
1.0
 76
     1
 77
     6
 78
     2
 67
     7
 79
     5
170
     0
171
     0
290
     0
174
     0
 93
       13
 44
0.0
173
     0
291
     1
 45
0.0
1001
ACAD
1000
AcDbSavedByObjectVersion
1070
     0
  0
VISUALSTYLE
  5
43C
102
{ACAD_XDICTIONARY
360
4BC
102
}
102
{ACAD_REACTORS
330
438
102
}
330
438
100
AcDbVisualStyle
  2
GouraudWithEdges
 70
     3
 71
     2
 72
     2
 73
     1
 90
        2
 40
-0.6
 41
30.0
 62
     5
 63
     7
 74
     1
 91
        0
 64
     7
 65
   257
 75
     1
175
     1
 42
1.0
 92
        0
 66
   257
 43
1.0
 76
     1
 77
     6
 78
     2
 67
     7
 79
     5
170
     0
171
     0
290
     0
174
     0
 93
       13
 44
0.0
173
     0
291
     1
 45
0.0
1001
ACAD
1000
AcDbSavedByObjectVersion
1070
     0
  0
VISUALSTYLE
  5
440
102
{ACAD_XDICTIONARY
360
4C4
102
}
102
{ACAD_REACTORS
330
438
102
}
330
438
100
AcDbVisualStyle
  2
Hidden
 70
     6
 71
     1
 72
     2
 73
     2
 90
        0
 40
-0.6
 41
-30.0
 62
     5
 63
     7
 74
     2
 91
        2
 64
     7
 65
   257
 75
     2
175
     1
 42
40.0
 92
        0
 66
   257
 43
1.0
 76
     1
 77
     6
 78
     2
 67
     7
 79
     3
170
     0
171
     0
290
     0
174
     0
 93
        1
 44
0.0
173
     0
291
     0
 45
0.0
1001
ACAD
1000
AcDbSavedByObjectVersion
1070
     0
  0
VISUALSTYLE
  5
44E
102
{ACAD_XDICTIONARY
360
4E0
102
}
102
{ACAD_REACTORS
330
438
102
}
330
438
100
AcDbVisualStyle
  2
JitterOff
 70
    20
 71
     2
 72
     2
 73
     0
 90
        0
 40
-0.6
 41
-30.0
 62
     5
 63
     7
 74
     1
 91
        4
 64
     7
 65
   257
 75
     1
175
     1
 42
1.0
 92
       10
 66
     7
 43
1.0
 76
     1
 77
     6
 78
     2
 67
     7
 79
     5
170
     0
171
     0
290
     0
174
     0
 93
        1
 44
0.0
173
     0
291
     1
 45
0.0
1001
ACAD
1000
AcDbSavedByObjectVersion
1070
     0
  0
VISUALSTYLE
  5
446
102
{ACAD_XDICTIONARY
360
4D0
102
}
102
{ACAD_REACTORS
330
438
102
}
330
438
100
AcDbVisualStyle
  2
Linepattern
 70
    14
 71
     2
 72
     2
 73
     0
 90
        0
 40
-0.6
 41
-30.0
 62
     5
 63
     7
 74
     1
 91
        4
 64
     7
 65
   257
 75
     7
175
     7
 42
1.0
 92
        8
 66
     7
 43
1.0
 76
     1
 77
     6
 78
     2
 67
     7
 79
     5
170
     0
171
     0
290
     0
174
     0
 93
        1
 44
0.0
173
     0
291
     1
 45
0.0
1001
ACAD
1000
AcDbSavedByObjectVersion
1070
     0
  0
VISUALSTYLE
  5
44F
102
{ACAD_XDICTIONARY
360
4E2
102
}
102
{ACAD_REACTORS
330
438
102
}
330
438
100
AcDbVisualStyle
  2
OverhangOff
 70
    21
 71
     2
 72
     2
 73
     0
 90
        0
 40
-0.6
 41
-30.0
 62
     5
 63
     7
 74
     1
 91
        4
 64
     7
 65
   257
 75
     1
175
     1
 42
1.0
 92
        9
 66
     7
 43
1.0
 76
     1
 77
     6
 78
     2
 67
     7
 79
     5
170
     0
171
     0
290
     0
174
     0
 93
        1
 44
0.0
173
     0
291
     1
 45
0.0
1001
ACAD
1000
AcDbSavedByObjectVersion
1070
     0
  0
VISUALSTYLE
  5
442
102
{ACAD_XDICTIONARY
360
4C8
102
}
102
{ACAD_REACTORS
330
438
102
}
330
438
100
AcDbVisualStyle
  2
Realistic
 70
     8
 71
     2
 72
     3
 73
     0
 90
        2
 40
-0.6
 41
30.0
 62
     5
 63
     7
 74
     0
 91
        0
 64
     7
 65
   257
 75
     1
175
     1
 42
1.0
 92
        8
 66
   257
 43
1.0
 76
     1
 77
     6
 78
     2
 67
     7
 79
     3
170
     0
171
     0
290
     0
174
     0
 93
       13
 44
0.0
173
     0
291
     0
 45
0.0
1001
ACAD
1000
AcDbSavedByObjectVersion
1070
     0
  0
VISUALSTYLE
  5
44D
102
{ACAD_XDICTIONARY
360
4DE
102
}
102
{ACAD_REACTORS
330
438
102
}
330
438
100
AcDbVisualStyle
  2
Shaded
 70
    27
 71
     2
 72
     2
 73
     1
 90
        2
 40
-0.6
 41
30.0
 62
     5
 63
     7
 74
     0
 91
        4
 64
     7
 65
   257
 75
     1
175
     1
 42
1.0
 92
        8
 66
   257
 43
1.0
 76
     1
 77
     6
 78
     2
 67
     8
 79
     3
170
     0
171
     0
290
     0
174
     0
 93
        5
 44
0.0
173
     0
291
     0
 45
0.0
1001
ACAD
1000
AcDbSavedByObjectVersion
1070
     0
  0
VISUALSTYLE
  5
44C
102
{ACAD_XDICTIONARY
360
4DC
102
}
102
{ACAD_REACTORS
330
438
102
}
330
438
100
AcDbVisualStyle
  2
Shaded with edges
 70
    26
 71
     2
 72
     2
 73
     1
 90
        2
 40
-0.6
 41
30.0
 62
     5
 63
     7
 74
     1
 91
        2
 64
     7
 65
   257
 75
     2
175
     1
 42
1.0
 92
        8
 66
   257
 43
1.0
 76
     1
 77
     6
 78
     2
 67
     7
 79
     3
170
     0
171
     0
290
     0
174
     0
 93
        5
 44
0.0
173
     0
291
     0
 45
0.0
1001
ACAD
1000
AcDbSavedByObjectVersion
1070
     0
  0
VISUALSTYLE
  5
449
102
{ACAD_XDICTIONARY
360
4D6
102
}
102
{ACAD_REACTORS
330
438
102
}
330
438
100
AcDbVisualStyle
  2
Shades of Gray
 70
    23
 71
     2
 72
     2
 73
     3
 90
        0
 40
-0.6
 41
-30.0
 62
     5
 63
     7
 74
     2
 91
        2
 64
     7
 65
     7
 75
     1
175
     1
 42
40.0
 92
        8
 66
     7
 43
1.0
 76
     1
 77
     6
 78
     2
 67
     7
 79
     3
170
     0
171
     0
290
     0
174
     0
 93
        1
 44
0.0
173
     0
291
     0
 45
0.0
1001
ACAD
1000
AcDbSavedByObjectVersion
1070
     0
  0
VISUALSTYLE
  5
44A
102
{ACAD_XDICTIONARY
360
4D8
102
}
102
{ACAD_REACTORS
330
438
102
}
330
438
100
AcDbVisualStyle
  2
Sketchy
 70
    24
 71
     1
 72
     2
 73
     2
 90
        0
 40
-0.6
 41
-30.0
 62
     5
 63
     7
 74
     2
 91
        2
 64
     7
 65
     7
 75
     1
175
     1
 42
40.0
 92
       11
 66
     7
 43
1.0
 76
     1
 77
     6
 78
     2
 67
     7
 79
     6
170
     0
171
     0
290
     0
174
     0
 93
        1
 44
0.0
173
     0
291
     0
 45
0.0
1001
ACAD
1000
AcDbSavedByObjectVersion
1070
     0
  0
VISUALSTYLE
  5
445
102
{ACAD_XDICTIONARY
360
4CE
102
}
102
{ACAD_REACTORS
330
438
102
}
330
438
100
AcDbVisualStyle
  2
Thicken
 70
    13
 71
     2
 72
     2
 73
     0
 90
        0
 40
-0.6
 41
-30.0
 62
     5
 63
     7
 74
     1
 91
        4
 64
     7
 65
   257
 75
     1
175
     1
 42
1.0
 92
       12
 66
     7
 43
1.0
 76
     1
 77
     6
 78
     2
 67
     7
 79
     5
170
     0
171
     0
290
     0
174
     0
 93
        1
 44
0.0
173
     0
291
     1
 45
0.0
1001
ACAD
1000
AcDbSavedByObjectVersion
1070
     0
  0
VISUALSTYLE
  5
43F
102
{ACAD_XDICTIONARY
360
4C2
102
}
102
{ACAD_REACTORS
330
438
102
}
330
438
100
AcDbVisualStyle
  2
Wireframe
 70
     5
 71
     0
 72
     2
 73
     0
 90
        0
 40
-0.6
 41
-30.0
 62
     5
 63
     7
 74
     1
 91
        4
 64
     7
 65
   257
 75
     1
175
     1
 42
1.0
 92
        0
 66
   257
 43
1.0
 76
     1
 77
     6
 78
     2
 67
     7
 79
     3
170
     0
171
     0
290
     0
174
     0
 93
        1
 44
0.0
173
     0
291
     0
 45
0.0
1001
ACAD
1000
AcDbSavedByObjectVersion
1070
     0
  0
VISUALSTYLE
  5
44B
102
{ACAD_XDICTIONARY
360
4DA
102
}
102
{ACAD_REACTORS
330
438
102
}
330
438
100
AcDbVisualStyle
  2
X-Ray
 70
    25
 71
     2
 72
     2
 73
     1
 90
        1
 40
0.5
 41
-30.0
 62
     5
 63
     7
 74
     1
 91
        0
 64
     7
 65
   257
 75
     1
175
     1
 42
1.0
 92
        8
 66
     7
 43
1.0
 76
     1
 77
     6
 78
     2
 67
     7
 79
     3
170
     0
171
     0
290
     0
174
     0
 93
       13
 44
0.0
173
     0
291
     0
 45
0.0
1001
ACAD
1000
AcDbSavedByObjectVersion
1070
     0
  0
DICTIONARYVAR
  5
4A9
102
{ACAD_REACTORS
330
4A4
102
}
330
4A4
100
DictionaryVariables
280
     0
  1
1:1
  0
DICTIONARYVAR
  5
4A6
102
{ACAD_REACTORS
330
4A4
102
}
330
4A4
100
DictionaryVariables
280
     0
  1
STANDARD
  0
DICTIONARYVAR
  5
4A5
102
{ACAD_REACTORS
330
4A4
102
}
330
4A4
100
DictionaryVariables
280
     0
  1
STANDARD
  0
DICTIONARYVAR
  5
4A7
102
{ACAD_REACTORS
330
4A4
102
}
330
4A4
100
DictionaryVariables
280
     0
  1
Imperial24
  0
DICTIONARYVAR
  5
4A8
102
{ACAD_REACTORS
330
4A4
102
}
330
4A4
100
DictionaryVariables
280
     0
  1
Imperial24
  0
DICTIONARYVAR
  5
4AC
102
{ACAD_REACTORS
330
4A4
102
}
330
4A4
100
DictionaryVariables
280
     0
  1
1
  0
DICTIONARYVAR
  5
4AB
102
{ACAD_REACTORS
330
4A4
102
}
330
4A4
100
DictionaryVariables
280
     0
  1
0
  0
DICTIONARYVAR
  5
4AA
102
{ACAD_REACTORS
330
4A4
102
}
330
4A4
100
DictionaryVariables
280
     0
  1
127
  0
DICTIONARYVAR
  5
4AD
102
{ACAD_REACTORS
330
4A4
102
}
330
4A4
100
DictionaryVariables
280
     0
  1
2
  0
DICTIONARY
  5
4EA
330
479
100
AcDbDictionary
280
     1
281
     1
  3
ACAD_XREC_ROUNDTRIP
360
4EB
  0
DICTIONARY
  5
4EE
330
481
100
AcDbDictionary
280
     1
281
     1
  3
ACAD_XREC_ROUNDTRIP
360
4EF
  0
DICTIONARY
  5
4EC
330
47D
100
AcDbDictionary
280
     1
281
     1
  3
ACAD_XREC_ROUNDTRIP
360
4ED
  0
DICTIONARY
  5
429
330
428
100
AcDbDictionary
280
     1
281
     1
  3
ACAD_XREC_ROUNDTRIP
360
4B4
  3
BUMPTILE
360
42B
  3
DIFFUSETILE
360
42A
  3
OPACITYTILE
360
42E
  3
REFLECTIONTILE
360
42D
  3
REFRACTIONTILE
360
42F
  3
SPECULARTILE
360
42C
  0
DICTIONARY
  5
421
330
420
100
AcDbDictionary
280
     1
281
     1
  3
ACAD_XREC_ROUNDTRIP
360
4B3
  3
BUMPTILE
360
423
  3
DIFFUSETILE
360
422
  3
OPACITYTILE
360
426
  3
REFLECTIONTILE
360
425
  3
REFRACTIONTILE
360
427
  3
SPECULARTILE
360
424
  0
DICTIONARY
  5
431
330
430
100
AcDbDictionary
280
     1
281
     1
  3
ACAD_XREC_ROUNDTRIP
360
4B5
  3
BUMPTILE
360
433
  3
DIFFUSETILE
360
432
  3
OPACITYTILE
360
436
  3
REFLECTIONTILE
360
435
  3
REFRACTIONTILE
360
437
  3
SPECULARTILE
360
434
  0
DICTIONARY
  5
4E8
330
477
100
AcDbDictionary
280
     1
281
     1
  3
ACAD_XREC_ROUNDTRIP
360
4E9
  0
DICTIONARY
  5
4AF
330
473
100
AcDbDictionary
280
     1
281
     1
  3
ACAD_ROUNDTRIP_2008_TABLESTYLE_CELLSTYLEMAP
360
4B0
  3
ACAD_XREC_ROUNDTRIP
360
4E6
  0
DICTIONARY
  5
4C0
330
43E
100
AcDbDictionary
280
     1
281
     1
  3
ACAD_XREC_ROUNDTRIP
360
4C1
  0
DICTIONARY
  5
4BE
330
43D
100
AcDbDictionary
280
     1
281
     1
  3
ACAD_XREC_ROUNDTRIP
360
4BF
  0
DICTIONARY
  5
4CC
330
444
100
AcDbDictionary
280
     1
281
     1
  3
ACAD_XREC_ROUNDTRIP
360
4CD
  0
DICTIONARY
  5
4D4
330
448
100
AcDbDictionary
280
     1
281
     1
  3
ACAD_XREC_ROUNDTRIP
360
4D5
  0
DICTIONARY
  5
4C6
330
441
100
AcDbDictionary
280
     1
281
     1
  3
ACAD_XREC_ROUNDTRIP
360
4C7
  0
DICTIONARY
  5
4CA
330
443
100
AcDbDictionary
280
     1
281
     1
  3
ACAD_XREC_ROUNDTRIP
360
4CB
  0
DICTIONARY
  5
4E4
330
450
100
AcDbDictionary
280
     1
281
     1
  3
ACAD_XREC_ROUNDTRIP
360
4E5
  0
DICTIONARY
  5
4D2
330
447
100
AcDbDictionary
280
     1
281
     1
  3
ACAD_XREC_ROUNDTRIP
360
4D3
  0
DICTIONARY
  5
4B6
330
439
100
AcDbDictionary
280
     1
281
     1
  3
ACAD_XREC_ROUNDTRIP
360
4B7
  0
DICTIONARY
  5
4B8
330
43A
100
AcDbDictionary
280
     1
281
     1
  3
ACAD_XREC_ROUNDTRIP
360
4B9
  0
DICTIONARY
  5
4BA
330
43B
100
AcDbDictionary
280
     1
281
     1
  3
ACAD_XREC_ROUNDTRIP
360
4BB
  0
DICTIONARY
  5
4BC
330
43C
100
AcDbDictionary
280
     1
281
     1
  3
ACAD_XREC_ROUNDTRIP
360
4BD
  0
DICTIONARY
  5
4C4
330
440
100
AcDbDictionary
280
     1
281
     1
  3
ACAD_XREC_ROUNDTRIP
360
4C5
  0
DICTIONARY
  5
4E0
330
44E
100
AcDbDictionary
280
     1
281
     1
  3
ACAD_XREC_ROUNDTRIP
360
4E1
  0
DICTIONARY
  5
4D0
330
446
100
AcDbDictionary
280
     1
281
     1
  3
ACAD_XREC_ROUNDTRIP
360
4D1
  0
DICTIONARY
  5
4E2
330
44F
100
AcDbDictionary
280
     1
281
     1
  3
ACAD_XREC_ROUNDTRIP
360
4E3
  0
DICTIONARY
  5
4C8
330
442
100
AcDbDictionary
280
     1
281
     1
  3
ACAD_XREC_ROUNDTRIP
360
4C9
  0
DICTIONARY
  5
4DE
330
44D
100
AcDbDictionary
280
     1
281
     1
  3
ACAD_XREC_ROUNDTRIP
360
4DF
  0
DICTIONARY
  5
4DC
330
44C
100
AcDbDictionary
280
     1
281
     1
  3
ACAD_XREC_ROUNDTRIP
360
4DD
  0
DICTIONARY
  5
4D6
330
449
100
AcDbDictionary
280
     1
281
     1
  3
ACAD_XREC_ROUNDTRIP
360
4D7
  0
DICTIONARY
  5
4D8
330
44A
100
AcDbDictionary
280
     1
281
     1
  3
ACAD_XREC_ROUNDTRIP
360
4D9
  0
DICTIONARY
  5
4CE
330
445
100
AcDbDictionary
280
     1
281
     1
  3
ACAD_XREC_ROUNDTRIP
360
4CF
  0
DICTIONARY
  5
4C2
330
43F
100
AcDbDictionary
280
     1
281
     1
  3
ACAD_XREC_ROUNDTRIP
360
4C3
  0
DICTIONARY
  5
4DA
330
44B
100
AcDbDictionary
280
     1
281
     1
  3
ACAD_XREC_ROUNDTRIP
360
4DB
  0
XRECORD
  5
4EB
102
{ACAD_REACTORS
330
4EA
102
}
330
4EA
100
AcDbXrecord
280
     1
102
DISPLAYNAME
  1
Imperial24
102
FLAGS
 90
        0
  0
XRECORD
  5
4EF
102
{ACAD_REACTORS
330
4EE
102
}
330
4EE
100
AcDbXrecord
280
     1
102
SHADEPLOT
 70
     0
102
SHADEPLOTRESLEVEL
 70
     2
102
SHADEPLOTCUSTOMDPI
 70
   300
  0
XRECORD
  5
4ED
102
{ACAD_REACTORS
330
4EC
102
}
330
4EC
100
AcDbXrecord
280
     1
102
SHADEPLOT
 70
     0
102
SHADEPLOTRESLEVEL
 70
     2
102
SHADEPLOTCUSTOMDPI
 70
   300
  0
XRECORD
  5
4B4
102
{ACAD_REACTORS
330
429
102
}
330
429
100
AcDbXrecord
280
     1
102
MATERIAL
148
0.0
149
0.0
149
0.0
 93
        0
 94
      127
282
     0
 72
     0
 77
     0
171
     0
175
     0
179
     0
273
     0
  0
XRECORD
  5
42B
102
{ACAD_REACTORS
330
429
102
}
330
429
100
AcDbXrecord
280
     1
270
     1
271
     1
  0
XRECORD
  5
42A
102
{ACAD_REACTORS
330
429
102
}
330
429
100
AcDbXrecord
280
     1
270
     1
271
     1
  0
XRECORD
  5
42E
102
{ACAD_REACTORS
330
429
102
}
330
429
100
AcDbXrecord
280
     1
270
     1
271
     1
  0
XRECORD
  5
42D
102
{ACAD_REACTORS
330
429
102
}
330
429
100
AcDbXrecord
280
     1
270
     1
271
     1
  0
XRECORD
  5
42F
102
{ACAD_REACTORS
330
429
102
}
330
429
100
AcDbXrecord
280
     1
270
     1
271
     1
  0
XRECORD
  5
42C
102
{ACAD_REACTORS
330
429
102
}
330
429
100
AcDbXrecord
280
     1
270
     1
271
     1
  0
XRECORD
  5
4B3
102
{ACAD_REACTORS
330
421
102
}
330
421
100
AcDbXrecord
280
     1
102
MATERIAL
148
0.0
149
0.0
149
0.0
 93
        0
 94
      127
282
     0
 72
     0
 77
     0
171
     0
175
     0
179
     0
273
     0
  0
XRECORD
  5
423
102
{ACAD_REACTORS
330
421
102
}
330
421
100
AcDbXrecord
280
     1
270
     1
271
     1
  0
XRECORD
  5
422
102
{ACAD_REACTORS
330
421
102
}
330
421
100
AcDbXrecord
280
     1
270
     1
271
     1
  0
XRECORD
  5
426
102
{ACAD_REACTORS
330
421
102
}
330
421
100
AcDbXrecord
280
     1
270
     1
271
     1
  0
XRECORD
  5
425
102
{ACAD_REACTORS
330
421
102
}
330
421
100
AcDbXrecord
280
     1
270
     1
271
     1
  0
XRECORD
  5
427
102
{ACAD_REACTORS
330
421
102
}
330
421
100
AcDbXrecord
280
     1
270
     1
271
     1
  0
XRECORD
  5
424
102
{ACAD_REACTORS
330
421
102
}
330
421
100
AcDbXrecord
280
     1
270
     1
271
     1
  0
XRECORD
  5
4B5
102
{ACAD_REACTORS
330
431
102
}
330
431
100
AcDbXrecord
280
     1
102
MATERIAL
148
0.0
149
0.0
149
0.0
 93
        0
 94
      127
282
     0
 72
     0
 77
     0
171
     0
175
     0
179
     0
273
     0
  0
XRECORD
  5
433
102
{ACAD_REACTORS
330
431
102
}
330
431
100
AcDbXrecord
280
     1
270
     1
271
     1
  0
XRECORD
  5
432
102
{ACAD_REACTORS
330
431
102
}
330
431
100
AcDbXrecord
280
     1
270
     1
271
     1
  0
XRECORD
  5
436
102
{ACAD_REACTORS
330
431
102
}
330
431
100
AcDbXrecord
280
     1
270
     1
271
     1
  0
XRECORD
  5
435
102
{ACAD_REACTORS
330
431
102
}
330
431
100
AcDbXrecord
280
     1
270
     1
271
     1
  0
XRECORD
  5
437
102
{ACAD_REACTORS
330
431
102
}
330
431
100
AcDbXrecord
280
     1
270
     1
271
     1
  0
XRECORD
  5
434
102
{ACAD_REACTORS
330
431
102
}
330
431
100
AcDbXrecord
280
     1
270
     1
271
     1
  0
XRECORD
  5
4E9
102
{ACAD_REACTORS
330
4E8
102
}
330
4E8
100
AcDbXrecord
280
     1
102
DISPLAYNAME
  1
Imperial24
102
FLAGS
 90
        0
  0
CELLSTYLEMAP
  5
4B0
102
{ACAD_REACTORS
330
4AF
102
}
330
4AF
100
AcDbCellStyleMap
 90
        3
300
CELLSTYLE
  1
TABLEFORMAT_BEGIN
 90
        5
170
     1
 91
        0
 92
    32768
 62
   257
 93
        1
300
CONTENTFORMAT
  1
CONTENTFORMAT_BEGIN
 90
        0
 91
        0
 92
      512
 93
        0
300

 40
0.0
140
1.0
 94
        5
 62
     0
340
464
144
0.25
309
CONTENTFORMAT_END
171
     0
 94
        0
309
TABLEFORMAT_END
  1
CELLSTYLE_BEGIN
 90
        1
 91
        1
300
_TITLE
309
CELLSTYLE_END
300
CELLSTYLE
  1
TABLEFORMAT_BEGIN
 90
        5
170
     1
 91
        0
 92
        0
 62
   257
 93
        1
300
CONTENTFORMAT
  1
CONTENTFORMAT_BEGIN
 90
        0
 91
        0
 92
      512
 93
        0
300

 40
0.0
140
1.0
 94
        5
 62
     0
340
464
144
0.18
309
CONTENTFORMAT_END
171
     0
 94
        0
309
TABLEFORMAT_END
  1
CELLSTYLE_BEGIN
 90
        2
 91
        1
300
_HEADER
309
CELLSTYLE_END
300
CELLSTYLE
  1
TABLEFORMAT_BEGIN
 90
        5
170
     1
 91
        0
 92
        0
 62
   257
 93
        1
300
CONTENTFORMAT
  1
CONTENTFORMAT_BEGIN
 90
        0
 91
        0
 92
      512
 93
        0
300

 40
0.0
140
1.0
 94
        2
 62
     0
340
464
144
0.18
309
CONTENTFORMAT_END
171
     0
 94
        0
309
TABLEFORMAT_END
  1
CELLSTYLE_BEGIN
 90
        3
 91
        2
300
_DATA
309
CELLSTYLE_END
  0
XRECORD
  5
4E6
102
{ACAD_REACTORS
330
4AF
102
}
330
4AF
100
AcDbXrecord
280
     1
102
ACAD_ROUNDTRIP_PRE2007_TABLESTYLE
 90
      512
 91
        0
  1

 92
      512
 93
        0
  2

 94
      512
 95
        0
  3

  0
XRECORD
  5
4C1
102
{ACAD_REACTORS
330
4C0
102
}
330
4C0
100
AcDbXrecord
280
     1
102
RTVSPost2010Prop28
280
     1
102
RTVSPost2010PropOp28
 70
     1
102
RTVSPost2010Prop29
280
     1
102
RTVSPost2010PropOp29
 70
     1
102
RTVSPost2010Prop30
280
     0
102
RTVSPost2010PropOp30
 70
     1
102
RTVSPost2010Prop31
280
     0
102
RTVSPost2010PropOp31
 70
     1
102
RTVSPost2010Prop32
280
     0
102
RTVSPost2010PropOp32
 70
     1
102
RTVSPost2010Prop33
280
     0
102
RTVSPost2010PropOp33
 70
     1
102
RTVSPost2010Prop34
280
     0
102
RTVSPost2010PropOp34
 70
     1
102
RTVSPost2010Prop35
280
     0
102
RTVSPost2010PropOp35
 70
     1
102
RTVSPost2010Prop36
280
     0
102
RTVSPost2010PropOp36
 70
     1
102
RTVSPost2010Prop37
 90
       50
102
RTVSPost2010PropOp37
 70
     1
102
RTVSPost2010Prop38
140
0.0
102
RTVSPost2010PropOp38
 70
     1
102
RTVSPost2010Prop39
140
1.0
102
RTVSPost2010PropOp39
 70
     1
102
RTVSPost2010Prop40
 90
        0
102
RTVSPost2010PropOp40
 70
     1
102
RTVSPost2010Prop41ColorIndex
 90
       18
102
RTVSPost2010Prop41ColorRGB
 90
        0
102
RTVSPost2010PropOp41
 70
     1
102
RTVSPost2010Prop42
 90
       50
102
RTVSPost2010PropOp42
 70
     1
102
RTVSPost2010Prop43
 90
        3
102
RTVSPost2010PropOp43
 70
     1
102
RTVSPost2010Prop44ColorIndex
 90
        5
102
RTVSPost2010Prop44ColorRGB
 90
      255
102
RTVSPost2010PropOp44
 70
     1
102
RTVSPost2010Prop45
280
     0
102
RTVSPost2010PropOp45
 70
     1
102
RTVSPost2010Prop46
 90
       50
102
RTVSPost2010PropOp46
 70
     1
102
RTVSPost2010Prop47
 90
       50
102
RTVSPost2010PropOp47
 70
     1
102
RTVSPost2010Prop48
 90
       50
102
RTVSPost2010PropOp48
 70
     1
102
RTVSPost2010Prop49
280
     0
102
RTVSPost2010PropOp49
 70
     1
102
RTVSPost2010Prop50
 90
       50
102
RTVSPost2010PropOp50
 70
     1
102
RTVSPost2010Prop51ColorIndex
 90
      256
102
RTVSPost2010Prop51ColorRGB
 90
-16777216
102
RTVSPost2010PropOp51
 70
     0
102
RTVSPost2010Prop52
140
1.0
102
RTVSPost2010PropOp52
 70
     0
102
RTVSPost2010Prop53
 90
        2
102
RTVSPost2010PropOp53
 70
     1
102
RTVSPost2010Prop54
  1
strokes_ogs.tif
102
RTVSPost2010PropOp54
 70
     1
102
RTVSPost2010Prop55
280
     0
102
RTVSPost2010PropOp55
 70
     1
102
RTVSPost2010Prop56
140
1.0
102
RTVSPost2010PropOp56
 70
     1
102
RTVSPost2010Prop57
140
1.0
102
RTVSPost2010PropOp57
 70
     1
102
RTVSPropertyOp0
 70
     1
102
RTVSPropertyOp1
 70
     1
102
RTVSPropertyOp2
 70
     1
102
RTVSPropertyOp3
 70
     1
102
RTVSPropertyOp4
 70
     1
102
RTVSPropertyOp5
 70
     1
102
RTVSPropertyOp6
 70
     1
102
RTVSPropertyOp7
 70
     1
102
RTVSPropertyOp8
 70
     1
102
RTVSPropertyOp9
 70
     1
102
RTVSPropertyOp10
 70
     1
102
RTVSPropertyOp11
 70
     1
102
RTVSPropertyOp12
 70
     1
102
RTVSPropertyOp13
 70
     1
102
RTVSPropertyOp14
 70
     1
102
RTVSPropertyOp15
 70
     1
102
RTVSPropertyOp16
 70
     1
102
RTVSPropertyOp17
 70
     1
102
RTVSPropertyOp18
 70
     1
102
RTVSPropertyOp19
 70
     1
102
RTVSPropertyOp20
 70
     1
102
RTVSPropertyOp21
 70
     1
102
RTVSPropertyOp22
 70
     1
102
RTVSPropertyOp23
 70
     1
102
RTVSPropertyOp24
 70
     1
102
RTVSPropertyOp25
 70
     1
102
RTVSPropertyOp26
 70
     1
102
RTVSPropertyOp27
 70
     1
102
RTVSPropertyOp28
 70
     1
102
RTVSPropertyOp29
 70
     1
102
RTVSPropertyOp30
 70
     1
102
RTVSPropertyOp31
 70
     1
102
RTVSPropertyOp32
 70
     1
102
RTVSPropertyOp33
 70
     1
102
RTVSPropertyOp34
 70
     1
102
RTVSPropertyOp35
 70
     1
102
RTVSPropertyOp36
 70
     1
102
RTVSPropertyOp37
 70
     1
102
RTVSPropertyOp38
 70
     1
102
RTVSPropertyOp39
 70
     1
102
RTVSPropertyOp40
 70
     1
102
RTVSPropertyOp41
 70
     1
102
RTVSPropertyOp42
 70
     1
102
RTVSPropertyOp43
 70
     1
102
RTVSPropertyOp44
 70
     1
102
RTVSPropertyOp45
 70
     1
102
RTVSPropertyOp46
 70
     1
102
RTVSPropertyOp47
 70
     1
102
RTVSPropertyOp48
 70
     1
102
RTVSPropertyOp49
 70
     1
102
RTVSPropertyOp50
 70
     1
102
RTVSPropertyOp51
 70
     0
102
RTVSPropertyOp52
 70
     0
102
RTVSPropertyOp53
 70
     1
102
RTVSPropertyOp54
 70
     1
102
RTVSPropertyOp55
 70
     1
102
RTVSPropertyOp56
 70
     1
102
RTVSPropertyOp57
 70
     1
102
RTVSPropertyOp58
 70
     1
102
RTVSPropertyOp59
 70
     1
102
RTVSPropertyOp60
 70
     1
102
RTVSPropertyOp61
 70
     1
102
RTVSPropertyOp62
 70
     1
  0
XRECORD
  5
4BF
102
{ACAD_REACTORS
330
4BE
102
}
330
4BE
100
AcDbXrecord
280
     1
102
RTVSPost2010Prop28
280
     0
102
RTVSPost2010PropOp28
 70
     1
102
RTVSPost2010Prop29
280
     1
102
RTVSPost2010PropOp29
 70
     1
102
RTVSPost2010Prop30
280
     1
102
RTVSPost2010PropOp30
 70
     1
102
RTVSPost2010Prop31
280
     0
102
RTVSPost2010PropOp31
 70
     1
102
RTVSPost2010Prop32
280
     0
102
RTVSPost2010PropOp32
 70
     1
102
RTVSPost2010Prop33
280
     0
102
RTVSPost2010PropOp33
 70
     1
102
RTVSPost2010Prop34
280
     0
102
RTVSPost2010PropOp34
 70
     1
102
RTVSPost2010Prop35
280
     0
102
RTVSPost2010PropOp35
 70
     1
102
RTVSPost2010Prop36
280
     0
102
RTVSPost2010PropOp36
 70
     1
102
RTVSPost2010Prop37
 90
       50
102
RTVSPost2010PropOp37
 70
     1
102
RTVSPost2010Prop38
140
0.0
102
RTVSPost2010PropOp38
 70
     1
102
RTVSPost2010Prop39
140
1.0
102
RTVSPost2010PropOp39
 70
     1
102
RTVSPost2010Prop40
 90
        0
102
RTVSPost2010PropOp40
 70
     1
102
RTVSPost2010Prop41ColorIndex
 90
       18
102
RTVSPost2010Prop41ColorRGB
 90
        0
102
RTVSPost2010PropOp41
 70
     1
102
RTVSPost2010Prop42
 90
       50
102
RTVSPost2010PropOp42
 70
     1
102
RTVSPost2010Prop43
 90
        3
102
RTVSPost2010PropOp43
 70
     1
102
RTVSPost2010Prop44ColorIndex
 90
        5
102
RTVSPost2010Prop44ColorRGB
 90
      255
102
RTVSPost2010PropOp44
 70
     1
102
RTVSPost2010Prop45
280
     0
102
RTVSPost2010PropOp45
 70
     1
102
RTVSPost2010Prop46
 90
       50
102
RTVSPost2010PropOp46
 70
     1
102
RTVSPost2010Prop47
 90
       50
102
RTVSPost2010PropOp47
 70
     1
102
RTVSPost2010Prop48
 90
       50
102
RTVSPost2010PropOp48
 70
     1
102
RTVSPost2010Prop49
280
     0
102
RTVSPost2010PropOp49
 70
     1
102
RTVSPost2010Prop50
 90
       50
102
RTVSPost2010PropOp50
 70
     1
102
RTVSPost2010Prop51ColorIndex
 90
      256
102
RTVSPost2010Prop51ColorRGB
 90
-16777216
102
RTVSPost2010PropOp51
 70
     0
102
RTVSPost2010Prop52
140
1.0
102
RTVSPost2010PropOp52
 70
     0
102
RTVSPost2010Prop53
 90
        2
102
RTVSPost2010PropOp53
 70
     1
102
RTVSPost2010Prop54
  1
strokes_ogs.tif
102
RTVSPost2010PropOp54
 70
     1
102
RTVSPost2010Prop55
280
     0
102
RTVSPost2010PropOp55
 70
     1
102
RTVSPost2010Prop56
140
1.0
102
RTVSPost2010PropOp56
 70
     1
102
RTVSPost2010Prop57
140
1.0
102
RTVSPost2010PropOp57
 70
     1
102
RTVSPropertyOp0
 70
     1
102
RTVSPropertyOp1
 70
     1
102
RTVSPropertyOp2
 70
     1
102
RTVSPropertyOp3
 70
     1
102
RTVSPropertyOp4
 70
     1
102
RTVSPropertyOp5
 70
     1
102
RTVSPropertyOp6
 70
     1
102
RTVSPropertyOp7
 70
     1
102
RTVSPropertyOp8
 70
     1
102
RTVSPropertyOp9
 70
     1
102
RTVSPropertyOp10
 70
     1
102
RTVSPropertyOp11
 70
     1
102
RTVSPropertyOp12
 70
     1
102
RTVSPropertyOp13
 70
     1
102
RTVSPropertyOp14
 70
     1
102
RTVSPropertyOp15
 70
     1
102
RTVSPropertyOp16
 70
     1
102
RTVSPropertyOp17
 70
     1
102
RTVSPropertyOp18
 70
     1
102
RTVSPropertyOp19
 70
     1
102
RTVSPropertyOp20
 70
     1
102
RTVSPropertyOp21
 70
     1
102
RTVSPropertyOp22
 70
     1
102
RTVSPropertyOp23
 70
     1
102
RTVSPropertyOp24
 70
     1
102
RTVSPropertyOp25
 70
     1
102
RTVSPropertyOp26
 70
     1
102
RTVSPropertyOp27
 70
     1
102
RTVSPropertyOp28
 70
     1
102
RTVSPropertyOp29
 70
     1
102
RTVSPropertyOp30
 70
     1
102
RTVSPropertyOp31
 70
     1
102
RTVSPropertyOp32
 70
     1
102
RTVSPropertyOp33
 70
     1
102
RTVSPropertyOp34
 70
     1
102
RTVSPropertyOp35
 70
     1
102
RTVSPropertyOp36
 70
     1
102
RTVSPropertyOp37
 70
     1
102
RTVSPropertyOp38
 70
     1
102
RTVSPropertyOp39
 70
     1
102
RTVSPropertyOp40
 70
     1
102
RTVSPropertyOp41
 70
     1
102
RTVSPropertyOp42
 70
     1
102
RTVSPropertyOp43
 70
     1
102
RTVSPropertyOp44
 70
     1
102
RTVSPropertyOp45
 70
     1
102
RTVSPropertyOp46
 70
     1
102
RTVSPropertyOp47
 70
     1
102
RTVSPropertyOp48
 70
     1
102
RTVSPropertyOp49
 70
     1
102
RTVSPropertyOp50
 70
     1
102
RTVSPropertyOp51
 70
     0
102
RTVSPropertyOp52
 70
     0
102
RTVSPropertyOp53
 70
     1
102
RTVSPropertyOp54
 70
     1
102
RTVSPropertyOp55
 70
     1
102
RTVSPropertyOp56
 70
     1
102
RTVSPropertyOp57
 70
     1
102
RTVSPropertyOp58
 70
     1
102
RTVSPropertyOp59
 70
     1
102
RTVSPropertyOp60
 70
     1
102
RTVSPropertyOp61
 70
     1
102
RTVSPropertyOp62
 70
     1
  0
XRECORD
  5
4CD
102
{ACAD_REACTORS
330
4CC
102
}
330
4CC
100
AcDbXrecord
280
     1
102
RTVSPost2010Prop28
280
     0
102
RTVSPost2010PropOp28
 70
     1
102
RTVSPost2010Prop29
280
     1
102
RTVSPost2010PropOp29
 70
     1
102
RTVSPost2010Prop30
280
     1
102
RTVSPost2010PropOp30
 70
     1
102
RTVSPost2010Prop31
280
     0
102
RTVSPost2010PropOp31
 70
     1
102
RTVSPost2010Prop32
280
     0
102
RTVSPost2010PropOp32
 70
     1
102
RTVSPost2010Prop33
280
     0
102
RTVSPost2010PropOp33
 70
     1
102
RTVSPost2010Prop34
280
     0
102
RTVSPost2010PropOp34
 70
     1
102
RTVSPost2010Prop35
280
     0
102
RTVSPost2010PropOp35
 70
     1
102
RTVSPost2010Prop36
280
     0
102
RTVSPost2010PropOp36
 70
     1
102
RTVSPost2010Prop37
 90
       50
102
RTVSPost2010PropOp37
 70
     1
102
RTVSPost2010Prop38
140
0.0
102
RTVSPost2010PropOp38
 70
     1
102
RTVSPost2010Prop39
140
1.0
102
RTVSPost2010PropOp39
 70
     1
102
RTVSPost2010Prop40
 90
        0
102
RTVSPost2010PropOp40
 70
     1
102
RTVSPost2010Prop41ColorIndex
 90
       18
102
RTVSPost2010Prop41ColorRGB
 90
        0
102
RTVSPost2010PropOp41
 70
     1
102
RTVSPost2010Prop42
 90
       50
102
RTVSPost2010PropOp42
 70
     1
102
RTVSPost2010Prop43
 90
        3
102
RTVSPost2010PropOp43
 70
     1
102
RTVSPost2010Prop44ColorIndex
 90
        5
102
RTVSPost2010Prop44ColorRGB
 90
      255
102
RTVSPost2010PropOp44
 70
     1
102
RTVSPost2010Prop45
280
     0
102
RTVSPost2010PropOp45
 70
     1
102
RTVSPost2010Prop46
 90
       50
102
RTVSPost2010PropOp46
 70
     1
102
RTVSPost2010Prop47
 90
       50
102
RTVSPost2010PropOp47
 70
     1
102
RTVSPost2010Prop48
 90
       50
102
RTVSPost2010PropOp48
 70
     1
102
RTVSPost2010Prop49
280
     0
102
RTVSPost2010PropOp49
 70
     1
102
RTVSPost2010Prop50
 90
       50
102
RTVSPost2010PropOp50
 70
     1
102
RTVSPost2010Prop51ColorIndex
 90
      256
102
RTVSPost2010Prop51ColorRGB
 90
-16777216
102
RTVSPost2010PropOp51
 70
     0
102
RTVSPost2010Prop52
140
1.0
102
RTVSPost2010PropOp52
 70
     0
102
RTVSPost2010Prop53
 90
        2
102
RTVSPost2010PropOp53
 70
     1
102
RTVSPost2010Prop54
  1
strokes_ogs.tif
102
RTVSPost2010PropOp54
 70
     1
102
RTVSPost2010Prop55
280
     0
102
RTVSPost2010PropOp55
 70
     1
102
RTVSPost2010Prop56
140
1.0
102
RTVSPost2010PropOp56
 70
     1
102
RTVSPost2010Prop57
140
1.0
102
RTVSPost2010PropOp57
 70
     1
102
RTVSPropertyOp0
 70
     1
102
RTVSPropertyOp1
 70
     1
102
RTVSPropertyOp2
 70
     1
102
RTVSPropertyOp3
 70
     1
102
RTVSPropertyOp4
 70
     1
102
RTVSPropertyOp5
 70
     1
102
RTVSPropertyOp6
 70
     1
102
RTVSPropertyOp7
 70
     1
102
RTVSPropertyOp8
 70
     1
102
RTVSPropertyOp9
 70
     1
102
RTVSPropertyOp10
 70
     1
102
RTVSPropertyOp11
 70
     1
102
RTVSPropertyOp12
 70
     1
102
RTVSPropertyOp13
 70
     1
102
RTVSPropertyOp14
 70
     1
102
RTVSPropertyOp15
 70
     1
102
RTVSPropertyOp16
 70
     1
102
RTVSPropertyOp17
 70
     1
102
RTVSPropertyOp18
 70
     1
102
RTVSPropertyOp19
 70
     1
102
RTVSPropertyOp20
 70
     1
102
RTVSPropertyOp21
 70
     1
102
RTVSPropertyOp22
 70
     1
102
RTVSPropertyOp23
 70
     1
102
RTVSPropertyOp24
 70
     1
102
RTVSPropertyOp25
 70
     1
102
RTVSPropertyOp26
 70
     1
102
RTVSPropertyOp27
 70
     1
102
RTVSPropertyOp28
 70
     1
102
RTVSPropertyOp29
 70
     1
102
RTVSPropertyOp30
 70
     1
102
RTVSPropertyOp31
 70
     1
102
RTVSPropertyOp32
 70
     1
102
RTVSPropertyOp33
 70
     1
102
RTVSPropertyOp34
 70
     1
102
RTVSPropertyOp35
 70
     1
102
RTVSPropertyOp36
 70
     1
102
RTVSPropertyOp37
 70
     1
102
RTVSPropertyOp38
 70
     1
102
RTVSPropertyOp39
 70
     1
102
RTVSPropertyOp40
 70
     1
102
RTVSPropertyOp41
 70
     1
102
RTVSPropertyOp42
 70
     1
102
RTVSPropertyOp43
 70
     1
102
RTVSPropertyOp44
 70
     1
102
RTVSPropertyOp45
 70
     1
102
RTVSPropertyOp46
 70
     1
102
RTVSPropertyOp47
 70
     1
102
RTVSPropertyOp48
 70
     1
102
RTVSPropertyOp49
 70
     1
102
RTVSPropertyOp50
 70
     1
102
RTVSPropertyOp51
 70
     0
102
RTVSPropertyOp52
 70
     0
102
RTVSPropertyOp53
 70
     1
102
RTVSPropertyOp54
 70
     1
102
RTVSPropertyOp55
 70
     1
102
RTVSPropertyOp56
 70
     1
102
RTVSPropertyOp57
 70
     1
102
RTVSPropertyOp58
 70
     1
102
RTVSPropertyOp59
 70
     1
102
RTVSPropertyOp60
 70
     1
102
RTVSPropertyOp61
 70
     1
102
RTVSPropertyOp62
 70
     1
  0
XRECORD
  5
4D5
102
{ACAD_REACTORS
330
4D4
102
}
330
4D4
100
AcDbXrecord
280
     1
102
RTVSPost2010Prop28
280
     0
102
RTVSPost2010PropOp28
 70
     1
102
RTVSPost2010Prop29
280
     1
102
RTVSPost2010PropOp29
 70
     1
102
RTVSPost2010Prop30
280
     1
102
RTVSPost2010PropOp30
 70
     1
102
RTVSPost2010Prop31
280
     0
102
RTVSPost2010PropOp31
 70
     1
102
RTVSPost2010Prop32
280
     0
102
RTVSPost2010PropOp32
 70
     1
102
RTVSPost2010Prop33
280
     0
102
RTVSPost2010PropOp33
 70
     1
102
RTVSPost2010Prop34
280
     0
102
RTVSPost2010PropOp34
 70
     1
102
RTVSPost2010Prop35
280
     0
102
RTVSPost2010PropOp35
 70
     1
102
RTVSPost2010Prop36
280
     0
102
RTVSPost2010PropOp36
 70
     1
102
RTVSPost2010Prop37
 90
       50
102
RTVSPost2010PropOp37
 70
     1
102
RTVSPost2010Prop38
140
0.0
102
RTVSPost2010PropOp38
 70
     1
102
RTVSPost2010Prop39
140
1.0
102
RTVSPost2010PropOp39
 70
     1
102
RTVSPost2010Prop40
 90
        0
102
RTVSPost2010PropOp40
 70
     1
102
RTVSPost2010Prop41ColorIndex
 90
       18
102
RTVSPost2010Prop41ColorRGB
 90
        0
102
RTVSPost2010PropOp41
 70
     1
102
RTVSPost2010Prop42
 90
       50
102
RTVSPost2010PropOp42
 70
     1
102
RTVSPost2010Prop43
 90
        3
102
RTVSPost2010PropOp43
 70
     1
102
RTVSPost2010Prop44ColorIndex
 90
        5
102
RTVSPost2010Prop44ColorRGB
 90
      255
102
RTVSPost2010PropOp44
 70
     1
102
RTVSPost2010Prop45
280
     0
102
RTVSPost2010PropOp45
 70
     1
102
RTVSPost2010Prop46
 90
       50
102
RTVSPost2010PropOp46
 70
     1
102
RTVSPost2010Prop47
 90
       50
102
RTVSPost2010PropOp47
 70
     1
102
RTVSPost2010Prop48
 90
       50
102
RTVSPost2010PropOp48
 70
     1
102
RTVSPost2010Prop49
280
     0
102
RTVSPost2010PropOp49
 70
     1
102
RTVSPost2010Prop50
 90
       50
102
RTVSPost2010PropOp50
 70
     1
102
RTVSPost2010Prop51ColorIndex
 90
      256
102
RTVSPost2010Prop51ColorRGB
 90
-16777216
102
RTVSPost2010PropOp51
 70
     0
102
RTVSPost2010Prop52
140
1.0
102
RTVSPost2010PropOp52
 70
     0
102
RTVSPost2010Prop53
 90
        2
102
RTVSPost2010PropOp53
 70
     1
102
RTVSPost2010Prop54
  1
strokes_ogs.tif
102
RTVSPost2010PropOp54
 70
     1
102
RTVSPost2010Prop55
280
     0
102
RTVSPost2010PropOp55
 70
     1
102
RTVSPost2010Prop56
140
1.0
102
RTVSPost2010PropOp56
 70
     1
102
RTVSPost2010Prop57
140
1.0
102
RTVSPost2010PropOp57
 70
     1
102
RTVSPropertyOp0
 70
     1
102
RTVSPropertyOp1
 70
     1
102
RTVSPropertyOp2
 70
     1
102
RTVSPropertyOp3
 70
     1
102
RTVSPropertyOp4
 70
     1
102
RTVSPropertyOp5
 70
     1
102
RTVSPropertyOp6
 70
     1
102
RTVSPropertyOp7
 70
     1
102
RTVSPropertyOp8
 70
     1
102
RTVSPropertyOp9
 70
     1
102
RTVSPropertyOp10
 70
     1
102
RTVSPropertyOp11
 70
     1
102
RTVSPropertyOp12
 70
     1
102
RTVSPropertyOp13
 70
     1
102
RTVSPropertyOp14
 70
     1
102
RTVSPropertyOp15
 70
     1
102
RTVSPropertyOp16
 70
     1
102
RTVSPropertyOp17
 70
     1
102
RTVSPropertyOp18
 70
     1
102
RTVSPropertyOp19
 70
     1
102
RTVSPropertyOp20
 70
     1
102
RTVSPropertyOp21
 70
     1
102
RTVSPropertyOp22
 70
     1
102
RTVSPropertyOp23
 70
     1
102
RTVSPropertyOp24
 70
     1
102
RTVSPropertyOp25
 70
     1
102
RTVSPropertyOp26
 70
     1
102
RTVSPropertyOp27
 70
     1
102
RTVSPropertyOp28
 70
     1
102
RTVSPropertyOp29
 70
     1
102
RTVSPropertyOp30
 70
     1
102
RTVSPropertyOp31
 70
     1
102
RTVSPropertyOp32
 70
     1
102
RTVSPropertyOp33
 70
     1
102
RTVSPropertyOp34
 70
     1
102
RTVSPropertyOp35
 70
     1
102
RTVSPropertyOp36
 70
     1
102
RTVSPropertyOp37
 70
     1
102
RTVSPropertyOp38
 70
     1
102
RTVSPropertyOp39
 70
     1
102
RTVSPropertyOp40
 70
     1
102
RTVSPropertyOp41
 70
     1
102
RTVSPropertyOp42
 70
     1
102
RTVSPropertyOp43
 70
     1
102
RTVSPropertyOp44
 70
     1
102
RTVSPropertyOp45
 70
     1
102
RTVSPropertyOp46
 70
     1
102
RTVSPropertyOp47
 70
     1
102
RTVSPropertyOp48
 70
     1
102
RTVSPropertyOp49
 70
     1
102
RTVSPropertyOp50
 70
     1
102
RTVSPropertyOp51
 70
     0
102
RTVSPropertyOp52
 70
     0
102
RTVSPropertyOp53
 70
     1
102
RTVSPropertyOp54
 70
     1
102
RTVSPropertyOp55
 70
     1
102
RTVSPropertyOp56
 70
     1
102
RTVSPropertyOp57
 70
     1
102
RTVSPropertyOp58
 70
     1
102
RTVSPropertyOp59
 70
     1
102
RTVSPropertyOp60
 70
     1
102
RTVSPropertyOp61
 70
     1
102
RTVSPropertyOp62
 70
     1
  0
XRECORD
  5
4C7
102
{ACAD_REACTORS
330
4C6
102
}
330
4C6
100
AcDbXrecord
280
     1
102
RTVSPost2010Prop28
280
     0
102
RTVSPost2010PropOp28
 70
     1
102
RTVSPost2010Prop29
280
     1
102
RTVSPost2010PropOp29
 70
     1
102
RTVSPost2010Prop30
280
     1
102
RTVSPost2010PropOp30
 70
     1
102
RTVSPost2010Prop31
280
     0
102
RTVSPost2010PropOp31
 70
     1
102
RTVSPost2010Prop32
280
     0
102
RTVSPost2010PropOp32
 70
     1
102
RTVSPost2010Prop33
280
     0
102
RTVSPost2010PropOp33
 70
     1
102
RTVSPost2010Prop34
280
     0
102
RTVSPost2010PropOp34
 70
     1
102
RTVSPost2010Prop35
280
     0
102
RTVSPost2010PropOp35
 70
     1
102
RTVSPost2010Prop36
280
     0
102
RTVSPost2010PropOp36
 70
     1
102
RTVSPost2010Prop37
 90
       50
102
RTVSPost2010PropOp37
 70
     1
102
RTVSPost2010Prop38
140
0.0
102
RTVSPost2010PropOp38
 70
     1
102
RTVSPost2010Prop39
140
1.0
102
RTVSPost2010PropOp39
 70
     1
102
RTVSPost2010Prop40
 90
        0
102
RTVSPost2010PropOp40
 70
     1
102
RTVSPost2010Prop41ColorIndex
 90
       18
102
RTVSPost2010Prop41ColorRGB
 90
        0
102
RTVSPost2010PropOp41
 70
     1
102
RTVSPost2010Prop42
 90
       50
102
RTVSPost2010PropOp42
 70
     1
102
RTVSPost2010Prop43
 90
        3
102
RTVSPost2010PropOp43
 70
     1
102
RTVSPost2010Prop44ColorIndex
 90
        5
102
RTVSPost2010Prop44ColorRGB
 90
      255
102
RTVSPost2010PropOp44
 70
     1
102
RTVSPost2010Prop45
280
     0
102
RTVSPost2010PropOp45
 70
     1
102
RTVSPost2010Prop46
 90
       50
102
RTVSPost2010PropOp46
 70
     1
102
RTVSPost2010Prop47
 90
       50
102
RTVSPost2010PropOp47
 70
     1
102
RTVSPost2010Prop48
 90
       50
102
RTVSPost2010PropOp48
 70
     1
102
RTVSPost2010Prop49
280
     0
102
RTVSPost2010PropOp49
 70
     1
102
RTVSPost2010Prop50
 90
       50
102
RTVSPost2010PropOp50
 70
     1
102
RTVSPost2010Prop51ColorIndex
 90
      256
102
RTVSPost2010Prop51ColorRGB
 90
-16777216
102
RTVSPost2010PropOp51
 70
     0
102
RTVSPost2010Prop52
140
1.0
102
RTVSPost2010PropOp52
 70
     0
102
RTVSPost2010Prop53
 90
        2
102
RTVSPost2010PropOp53
 70
     1
102
RTVSPost2010Prop54
  1
strokes_ogs.tif
102
RTVSPost2010PropOp54
 70
     1
102
RTVSPost2010Prop55
280
     0
102
RTVSPost2010PropOp55
 70
     1
102
RTVSPost2010Prop56
140
1.0
102
RTVSPost2010PropOp56
 70
     1
102
RTVSPost2010Prop57
140
1.0
102
RTVSPost2010PropOp57
 70
     1
102
RTVSPropertyOp0
 70
     1
102
RTVSPropertyOp1
 70
     1
102
RTVSPropertyOp2
 70
     1
102
RTVSPropertyOp3
 70
     1
102
RTVSPropertyOp4
 70
     1
102
RTVSPropertyOp5
 70
     1
102
RTVSPropertyOp6
 70
     1
102
RTVSPropertyOp7
 70
     1
102
RTVSPropertyOp8
 70
     1
102
RTVSPropertyOp9
 70
     1
102
RTVSPropertyOp10
 70
     1
102
RTVSPropertyOp11
 70
     1
102
RTVSPropertyOp12
 70
     1
102
RTVSPropertyOp13
 70
     1
102
RTVSPropertyOp14
 70
     1
102
RTVSPropertyOp15
 70
     1
102
RTVSPropertyOp16
 70
     1
102
RTVSPropertyOp17
 70
     1
102
RTVSPropertyOp18
 70
     1
102
RTVSPropertyOp19
 70
     1
102
RTVSPropertyOp20
 70
     1
102
RTVSPropertyOp21
 70
     1
102
RTVSPropertyOp22
 70
     1
102
RTVSPropertyOp23
 70
     1
102
RTVSPropertyOp24
 70
     1
102
RTVSPropertyOp25
 70
     1
102
RTVSPropertyOp26
 70
     1
102
RTVSPropertyOp27
 70
     1
102
RTVSPropertyOp28
 70
     1
102
RTVSPropertyOp29
 70
     1
102
RTVSPropertyOp30
 70
     1
102
RTVSPropertyOp31
 70
     1
102
RTVSPropertyOp32
 70
     1
102
RTVSPropertyOp33
 70
     1
102
RTVSPropertyOp34
 70
     1
102
RTVSPropertyOp35
 70
     1
102
RTVSPropertyOp36
 70
     1
102
RTVSPropertyOp37
 70
     1
102
RTVSPropertyOp38
 70
     1
102
RTVSPropertyOp39
 70
     1
102
RTVSPropertyOp40
 70
     1
102
RTVSPropertyOp41
 70
     1
102
RTVSPropertyOp42
 70
     1
102
RTVSPropertyOp43
 70
     1
102
RTVSPropertyOp44
 70
     1
102
RTVSPropertyOp45
 70
     1
102
RTVSPropertyOp46
 70
     1
102
RTVSPropertyOp47
 70
     1
102
RTVSPropertyOp48
 70
     1
102
RTVSPropertyOp49
 70
     1
102
RTVSPropertyOp50
 70
     1
102
RTVSPropertyOp51
 70
     0
102
RTVSPropertyOp52
 70
     0
102
RTVSPropertyOp53
 70
     1
102
RTVSPropertyOp54
 70
     1
102
RTVSPropertyOp55
 70
     1
102
RTVSPropertyOp56
 70
     1
102
RTVSPropertyOp57
 70
     1
102
RTVSPropertyOp58
 70
     1
102
RTVSPropertyOp59
 70
     1
102
RTVSPropertyOp60
 70
     1
102
RTVSPropertyOp61
 70
     1
102
RTVSPropertyOp62
 70
     1
  0
XRECORD
  5
4CB
102
{ACAD_REACTORS
330
4CA
102
}
330
4CA
100
AcDbXrecord
280
     1
102
RTVSPost2010Prop28
280
     0
102
RTVSPost2010PropOp28
 70
     1
102
RTVSPost2010Prop29
280
     1
102
RTVSPost2010PropOp29
 70
     1
102
RTVSPost2010Prop30
280
     1
102
RTVSPost2010PropOp30
 70
     1
102
RTVSPost2010Prop31
280
     0
102
RTVSPost2010PropOp31
 70
     1
102
RTVSPost2010Prop32
280
     0
102
RTVSPost2010PropOp32
 70
     1
102
RTVSPost2010Prop33
280
     0
102
RTVSPost2010PropOp33
 70
     1
102
RTVSPost2010Prop34
280
     0
102
RTVSPost2010PropOp34
 70
     1
102
RTVSPost2010Prop35
280
     0
102
RTVSPost2010PropOp35
 70
     1
102
RTVSPost2010Prop36
280
     0
102
RTVSPost2010PropOp36
 70
     1
102
RTVSPost2010Prop37
 90
       50
102
RTVSPost2010PropOp37
 70
     1
102
RTVSPost2010Prop38
140
0.0
102
RTVSPost2010PropOp38
 70
     1
102
RTVSPost2010Prop39
140
1.0
102
RTVSPost2010PropOp39
 70
     1
102
RTVSPost2010Prop40
 90
        0
102
RTVSPost2010PropOp40
 70
     1
102
RTVSPost2010Prop41ColorIndex
 90
       18
102
RTVSPost2010Prop41ColorRGB
 90
        0
102
RTVSPost2010PropOp41
 70
     1
102
RTVSPost2010Prop42
 90
       50
102
RTVSPost2010PropOp42
 70
     1
102
RTVSPost2010Prop43
 90
        3
102
RTVSPost2010PropOp43
 70
     1
102
RTVSPost2010Prop44ColorIndex
 90
        5
102
RTVSPost2010Prop44ColorRGB
 90
      255
102
RTVSPost2010PropOp44
 70
     1
102
RTVSPost2010Prop45
280
     0
102
RTVSPost2010PropOp45
 70
     1
102
RTVSPost2010Prop46
 90
       50
102
RTVSPost2010PropOp46
 70
     1
102
RTVSPost2010Prop47
 90
       50
102
RTVSPost2010PropOp47
 70
     1
102
RTVSPost2010Prop48
 90
       50
102
RTVSPost2010PropOp48
 70
     1
102
RTVSPost2010Prop49
280
     0
102
RTVSPost2010PropOp49
 70
     1
102
RTVSPost2010Prop50
 90
       50
102
RTVSPost2010PropOp50
 70
     1
102
RTVSPost2010Prop51ColorIndex
 90
      256
102
RTVSPost2010Prop51ColorRGB
 90
-16777216
102
RTVSPost2010PropOp51
 70
     0
102
RTVSPost2010Prop52
140
1.0
102
RTVSPost2010PropOp52
 70
     0
102
RTVSPost2010Prop53
 90
        2
102
RTVSPost2010PropOp53
 70
     1
102
RTVSPost2010Prop54
  1
strokes_ogs.tif
102
RTVSPost2010PropOp54
 70
     1
102
RTVSPost2010Prop55
280
     0
102
RTVSPost2010PropOp55
 70
     1
102
RTVSPost2010Prop56
140
1.0
102
RTVSPost2010PropOp56
 70
     1
102
RTVSPost2010Prop57
140
1.0
102
RTVSPost2010PropOp57
 70
     1
102
RTVSPropertyOp0
 70
     1
102
RTVSPropertyOp1
 70
     1
102
RTVSPropertyOp2
 70
     1
102
RTVSPropertyOp3
 70
     1
102
RTVSPropertyOp4
 70
     1
102
RTVSPropertyOp5
 70
     1
102
RTVSPropertyOp6
 70
     1
102
RTVSPropertyOp7
 70
     1
102
RTVSPropertyOp8
 70
     1
102
RTVSPropertyOp9
 70
     1
102
RTVSPropertyOp10
 70
     1
102
RTVSPropertyOp11
 70
     1
102
RTVSPropertyOp12
 70
     1
102
RTVSPropertyOp13
 70
     1
102
RTVSPropertyOp14
 70
     1
102
RTVSPropertyOp15
 70
     1
102
RTVSPropertyOp16
 70
     1
102
RTVSPropertyOp17
 70
     1
102
RTVSPropertyOp18
 70
     1
102
RTVSPropertyOp19
 70
     1
102
RTVSPropertyOp20
 70
     1
102
RTVSPropertyOp21
 70
     1
102
RTVSPropertyOp22
 70
     1
102
RTVSPropertyOp23
 70
     1
102
RTVSPropertyOp24
 70
     1
102
RTVSPropertyOp25
 70
     1
102
RTVSPropertyOp26
 70
     1
102
RTVSPropertyOp27
 70
     1
102
RTVSPropertyOp28
 70
     1
102
RTVSPropertyOp29
 70
     1
102
RTVSPropertyOp30
 70
     1
102
RTVSPropertyOp31
 70
     1
102
RTVSPropertyOp32
 70
     1
102
RTVSPropertyOp33
 70
     1
102
RTVSPropertyOp34
 70
     1
102
RTVSPropertyOp35
 70
     1
102
RTVSPropertyOp36
 70
     1
102
RTVSPropertyOp37
 70
     1
102
RTVSPropertyOp38
 70
     1
102
RTVSPropertyOp39
 70
     1
102
RTVSPropertyOp40
 70
     1
102
RTVSPropertyOp41
 70
     1
102
RTVSPropertyOp42
 70
     1
102
RTVSPropertyOp43
 70
     1
102
RTVSPropertyOp44
 70
     1
102
RTVSPropertyOp45
 70
     1
102
RTVSPropertyOp46
 70
     1
102
RTVSPropertyOp47
 70
     1
102
RTVSPropertyOp48
 70
     1
102
RTVSPropertyOp49
 70
     1
102
RTVSPropertyOp50
 70
     1
102
RTVSPropertyOp51
 70
     0
102
RTVSPropertyOp52
 70
     0
102
RTVSPropertyOp53
 70
     1
102
RTVSPropertyOp54
 70
     1
102
RTVSPropertyOp55
 70
     1
102
RTVSPropertyOp56
 70
     1
102
RTVSPropertyOp57
 70
     1
102
RTVSPropertyOp58
 70
     1
102
RTVSPropertyOp59
 70
     1
102
RTVSPropertyOp60
 70
     1
102
RTVSPropertyOp61
 70
     1
102
RTVSPropertyOp62
 70
     1
  0
XRECORD
  5
4E5
102
{ACAD_REACTORS
330
4E4
102
}
330
4E4
100
AcDbXrecord
280
     1
102
RTVSPost2010Prop28
280
     0
102
RTVSPost2010PropOp28
 70
     1
102
RTVSPost2010Prop29
280
     1
102
RTVSPost2010PropOp29
 70
     1
102
RTVSPost2010Prop30
280
     1
102
RTVSPost2010PropOp30
 70
     1
102
RTVSPost2010Prop31
280
     0
102
RTVSPost2010PropOp31
 70
     1
102
RTVSPost2010Prop32
280
     0
102
RTVSPost2010PropOp32
 70
     1
102
RTVSPost2010Prop33
280
     0
102
RTVSPost2010PropOp33
 70
     1
102
RTVSPost2010Prop34
280
     0
102
RTVSPost2010PropOp34
 70
     1
102
RTVSPost2010Prop35
280
     0
102
RTVSPost2010PropOp35
 70
     1
102
RTVSPost2010Prop36
280
     0
102
RTVSPost2010PropOp36
 70
     1
102
RTVSPost2010Prop37
 90
       50
102
RTVSPost2010PropOp37
 70
     0
102
RTVSPost2010Prop38
140
0.0
102
RTVSPost2010PropOp38
 70
     0
102
RTVSPost2010Prop39
140
1.0
102
RTVSPost2010PropOp39
 70
     0
102
RTVSPost2010Prop40
 90
        0
102
RTVSPost2010PropOp40
 70
     0
102
RTVSPost2010Prop41ColorIndex
 90
       18
102
RTVSPost2010Prop41ColorRGB
 90
        0
102
RTVSPost2010PropOp41
 70
     0
102
RTVSPost2010Prop42
 90
       50
102
RTVSPost2010PropOp42
 70
     0
102
RTVSPost2010Prop43
 90
        3
102
RTVSPost2010PropOp43
 70
     0
102
RTVSPost2010Prop44ColorIndex
 90
        5
102
RTVSPost2010Prop44ColorRGB
 90
      255
102
RTVSPost2010PropOp44
 70
     0
102
RTVSPost2010Prop45
280
     0
102
RTVSPost2010PropOp45
 70
     1
102
RTVSPost2010Prop46
 90
       50
102
RTVSPost2010PropOp46
 70
     0
102
RTVSPost2010Prop47
 90
       50
102
RTVSPost2010PropOp47
 70
     0
102
RTVSPost2010Prop48
 90
       50
102
RTVSPost2010PropOp48
 70
     0
102
RTVSPost2010Prop49
280
     0
102
RTVSPost2010PropOp49
 70
     1
102
RTVSPost2010Prop50
 90
       50
102
RTVSPost2010PropOp50
 70
     0
102
RTVSPost2010Prop51ColorIndex
 90
      256
102
RTVSPost2010Prop51ColorRGB
 90
-16777216
102
RTVSPost2010PropOp51
 70
     0
102
RTVSPost2010Prop52
140
1.0
102
RTVSPost2010PropOp52
 70
     0
102
RTVSPost2010Prop53
 90
        2
102
RTVSPost2010PropOp53
 70
     0
102
RTVSPost2010Prop54
  1
strokes_ogs.tif
102
RTVSPost2010PropOp54
 70
     0
102
RTVSPost2010Prop55
280
     0
102
RTVSPost2010PropOp55
 70
     1
102
RTVSPost2010Prop56
140
1.0
102
RTVSPost2010PropOp56
 70
     0
102
RTVSPost2010Prop57
140
1.0
102
RTVSPost2010PropOp57
 70
     0
102
RTVSPropertyOp0
 70
     0
102
RTVSPropertyOp1
 70
     0
102
RTVSPropertyOp2
 70
     0
102
RTVSPropertyOp3
 70
     0
102
RTVSPropertyOp4
 70
     0
102
RTVSPropertyOp5
 70
     0
102
RTVSPropertyOp6
 70
     0
102
RTVSPropertyOp7
 70
     0
102
RTVSPropertyOp8
 70
     0
102
RTVSPropertyOp9
 70
     0
102
RTVSPropertyOp10
 70
     0
102
RTVSPropertyOp11
 70
     0
102
RTVSPropertyOp12
 70
     0
102
RTVSPropertyOp13
 70
     0
102
RTVSPropertyOp14
 70
     2
102
RTVSPropertyOp15
 70
     0
102
RTVSPropertyOp16
 70
     0
102
RTVSPropertyOp17
 70
     0
102
RTVSPropertyOp18
 70
     0
102
RTVSPropertyOp19
 70
     0
102
RTVSPropertyOp20
 70
     0
102
RTVSPropertyOp21
 70
     0
102
RTVSPropertyOp22
 70
     0
102
RTVSPropertyOp23
 70
     0
102
RTVSPropertyOp24
 70
     0
102
RTVSPropertyOp25
 70
     0
102
RTVSPropertyOp26
 70
     0
102
RTVSPropertyOp27
 70
     0
102
RTVSPropertyOp28
 70
     1
102
RTVSPropertyOp29
 70
     1
102
RTVSPropertyOp30
 70
     1
102
RTVSPropertyOp31
 70
     1
102
RTVSPropertyOp32
 70
     1
102
RTVSPropertyOp33
 70
     1
102
RTVSPropertyOp34
 70
     1
102
RTVSPropertyOp35
 70
     1
102
RTVSPropertyOp36
 70
     1
102
RTVSPropertyOp37
 70
     0
102
RTVSPropertyOp38
 70
     0
102
RTVSPropertyOp39
 70
     0
102
RTVSPropertyOp40
 70
     0
102
RTVSPropertyOp41
 70
     0
102
RTVSPropertyOp42
 70
     0
102
RTVSPropertyOp43
 70
     0
102
RTVSPropertyOp44
 70
     0
102
RTVSPropertyOp45
 70
     1
102
RTVSPropertyOp46
 70
     0
102
RTVSPropertyOp47
 70
     0
102
RTVSPropertyOp48
 70
     0
102
RTVSPropertyOp49
 70
     1
102
RTVSPropertyOp50
 70
     0
102
RTVSPropertyOp51
 70
     0
102
RTVSPropertyOp52
 70
     0
102
RTVSPropertyOp53
 70
     0
102
RTVSPropertyOp54
 70
     0
102
RTVSPropertyOp55
 70
     1
102
RTVSPropertyOp56
 70
     0
102
RTVSPropertyOp57
 70
     0
102
RTVSPropertyOp58
 70
     0
102
RTVSPropertyOp59
 70
     0
102
RTVSPropertyOp60
 70
     0
102
RTVSPropertyOp61
 70
     0
102
RTVSPropertyOp62
 70
     0
  0
XRECORD
  5
4D3
102
{ACAD_REACTORS
330
4D2
102
}
330
4D2
100
AcDbXrecord
280
     1
102
RTVSPost2010Prop28
280
     0
102
RTVSPost2010PropOp28
 70
     1
102
RTVSPost2010Prop29
280
     1
102
RTVSPost2010PropOp29
 70
     1
102
RTVSPost2010Prop30
280
     1
102
RTVSPost2010PropOp30
 70
     1
102
RTVSPost2010Prop31
280
     0
102
RTVSPost2010PropOp31
 70
     1
102
RTVSPost2010Prop32
280
     0
102
RTVSPost2010PropOp32
 70
     1
102
RTVSPost2010Prop33
280
     0
102
RTVSPost2010PropOp33
 70
     1
102
RTVSPost2010Prop34
280
     0
102
RTVSPost2010PropOp34
 70
     1
102
RTVSPost2010Prop35
280
     0
102
RTVSPost2010PropOp35
 70
     1
102
RTVSPost2010Prop36
280
     0
102
RTVSPost2010PropOp36
 70
     1
102
RTVSPost2010Prop37
 90
       50
102
RTVSPost2010PropOp37
 70
     1
102
RTVSPost2010Prop38
140
0.0
102
RTVSPost2010PropOp38
 70
     1
102
RTVSPost2010Prop39
140
1.0
102
RTVSPost2010PropOp39
 70
     1
102
RTVSPost2010Prop40
 90
        0
102
RTVSPost2010PropOp40
 70
     1
102
RTVSPost2010Prop41ColorIndex
 90
       18
102
RTVSPost2010Prop41ColorRGB
 90
        0
102
RTVSPost2010PropOp41
 70
     1
102
RTVSPost2010Prop42
 90
       50
102
RTVSPost2010PropOp42
 70
     1
102
RTVSPost2010Prop43
 90
        3
102
RTVSPost2010PropOp43
 70
     1
102
RTVSPost2010Prop44ColorIndex
 90
        5
102
RTVSPost2010Prop44ColorRGB
 90
      255
102
RTVSPost2010PropOp44
 70
     1
102
RTVSPost2010Prop45
280
     0
102
RTVSPost2010PropOp45
 70
     1
102
RTVSPost2010Prop46
 90
       50
102
RTVSPost2010PropOp46
 70
     1
102
RTVSPost2010Prop47
 90
       50
102
RTVSPost2010PropOp47
 70
     1
102
RTVSPost2010Prop48
 90
       50
102
RTVSPost2010PropOp48
 70
     1
102
RTVSPost2010Prop49
280
     0
102
RTVSPost2010PropOp49
 70
     1
102
RTVSPost2010Prop50
 90
       50
102
RTVSPost2010PropOp50
 70
     1
102
RTVSPost2010Prop51ColorIndex
 90
      256
102
RTVSPost2010Prop51ColorRGB
 90
-16777216
102
RTVSPost2010PropOp51
 70
     0
102
RTVSPost2010Prop52
140
1.0
102
RTVSPost2010PropOp52
 70
     0
102
RTVSPost2010Prop53
 90
        2
102
RTVSPost2010PropOp53
 70
     1
102
RTVSPost2010Prop54
  1
strokes_ogs.tif
102
RTVSPost2010PropOp54
 70
     1
102
RTVSPost2010Prop55
280
     0
102
RTVSPost2010PropOp55
 70
     1
102
RTVSPost2010Prop56
140
1.0
102
RTVSPost2010PropOp56
 70
     1
102
RTVSPost2010Prop57
140
1.0
102
RTVSPost2010PropOp57
 70
     1
102
RTVSPropertyOp0
 70
     1
102
RTVSPropertyOp1
 70
     1
102
RTVSPropertyOp2
 70
     1
102
RTVSPropertyOp3
 70
     1
102
RTVSPropertyOp4
 70
     1
102
RTVSPropertyOp5
 70
     1
102
RTVSPropertyOp6
 70
     1
102
RTVSPropertyOp7
 70
     1
102
RTVSPropertyOp8
 70
     1
102
RTVSPropertyOp9
 70
     1
102
RTVSPropertyOp10
 70
     1
102
RTVSPropertyOp11
 70
     1
102
RTVSPropertyOp12
 70
     1
102
RTVSPropertyOp13
 70
     1
102
RTVSPropertyOp14
 70
     1
102
RTVSPropertyOp15
 70
     1
102
RTVSPropertyOp16
 70
     1
102
RTVSPropertyOp17
 70
     1
102
RTVSPropertyOp18
 70
     1
102
RTVSPropertyOp19
 70
     1
102
RTVSPropertyOp20
 70
     1
102
RTVSPropertyOp21
 70
     1
102
RTVSPropertyOp22
 70
     1
102
RTVSPropertyOp23
 70
     1
102
RTVSPropertyOp24
 70
     1
102
RTVSPropertyOp25
 70
     1
102
RTVSPropertyOp26
 70
     1
102
RTVSPropertyOp27
 70
     1
102
RTVSPropertyOp28
 70
     1
102
RTVSPropertyOp29
 70
     1
102
RTVSPropertyOp30
 70
     1
102
RTVSPropertyOp31
 70
     1
102
RTVSPropertyOp32
 70
     1
102
RTVSPropertyOp33
 70
     1
102
RTVSPropertyOp34
 70
     1
102
RTVSPropertyOp35
 70
     1
102
RTVSPropertyOp36
 70
     1
102
RTVSPropertyOp37
 70
     1
102
RTVSPropertyOp38
 70
     1
102
RTVSPropertyOp39
 70
     1
102
RTVSPropertyOp40
 70
     1
102
RTVSPropertyOp41
 70
     1
102
RTVSPropertyOp42
 70
     1
102
RTVSPropertyOp43
 70
     1
102
RTVSPropertyOp44
 70
     1
102
RTVSPropertyOp45
 70
     1
102
RTVSPropertyOp46
 70
     1
102
RTVSPropertyOp47
 70
     1
102
RTVSPropertyOp48
 70
     1
102
RTVSPropertyOp49
 70
     1
102
RTVSPropertyOp50
 70
     1
102
RTVSPropertyOp51
 70
     0
102
RTVSPropertyOp52
 70
     0
102
RTVSPropertyOp53
 70
     1
102
RTVSPropertyOp54
 70
     1
102
RTVSPropertyOp55
 70
     1
102
RTVSPropertyOp56
 70
     1
102
RTVSPropertyOp57
 70
     1
102
RTVSPropertyOp58
 70
     1
102
RTVSPropertyOp59
 70
     1
102
RTVSPropertyOp60
 70
     1
102
RTVSPropertyOp61
 70
     1
102
RTVSPropertyOp62
 70
     1
  0
XRECORD
  5
4B7
102
{ACAD_REACTORS
330
4B6
102
}
330
4B6
100
AcDbXrecord
280
     1
102
RTVSPost2010Prop28
280
     0
102
RTVSPost2010PropOp28
 70
     1
102
RTVSPost2010Prop29
280
     1
102
RTVSPost2010PropOp29
 70
     1
102
RTVSPost2010Prop30
280
     1
102
RTVSPost2010PropOp30
 70
     1
102
RTVSPost2010Prop31
280
     0
102
RTVSPost2010PropOp31
 70
     1
102
RTVSPost2010Prop32
280
     0
102
RTVSPost2010PropOp32
 70
     1
102
RTVSPost2010Prop33
280
     0
102
RTVSPost2010PropOp33
 70
     1
102
RTVSPost2010Prop34
280
     0
102
RTVSPost2010PropOp34
 70
     1
102
RTVSPost2010Prop35
280
     0
102
RTVSPost2010PropOp35
 70
     1
102
RTVSPost2010Prop36
280
     0
102
RTVSPost2010PropOp36
 70
     1
102
RTVSPost2010Prop37
 90
       50
102
RTVSPost2010PropOp37
 70
     1
102
RTVSPost2010Prop38
140
0.0
102
RTVSPost2010PropOp38
 70
     1
102
RTVSPost2010Prop39
140
1.0
102
RTVSPost2010PropOp39
 70
     1
102
RTVSPost2010Prop40
 90
        0
102
RTVSPost2010PropOp40
 70
     1
102
RTVSPost2010Prop41ColorIndex
 90
       18
102
RTVSPost2010Prop41ColorRGB
 90
        0
102
RTVSPost2010PropOp41
 70
     1
102
RTVSPost2010Prop42
 90
       50
102
RTVSPost2010PropOp42
 70
     1
102
RTVSPost2010Prop43
 90
        3
102
RTVSPost2010PropOp43
 70
     1
102
RTVSPost2010Prop44ColorIndex
 90
        5
102
RTVSPost2010Prop44ColorRGB
 90
      255
102
RTVSPost2010PropOp44
 70
     1
102
RTVSPost2010Prop45
280
     0
102
RTVSPost2010PropOp45
 70
     1
102
RTVSPost2010Prop46
 90
       50
102
RTVSPost2010PropOp46
 70
     1
102
RTVSPost2010Prop47
 90
       50
102
RTVSPost2010PropOp47
 70
     1
102
RTVSPost2010Prop48
 90
       50
102
RTVSPost2010PropOp48
 70
     1
102
RTVSPost2010Prop49
280
     0
102
RTVSPost2010PropOp49
 70
     1
102
RTVSPost2010Prop50
 90
       50
102
RTVSPost2010PropOp50
 70
     1
102
RTVSPost2010Prop51ColorIndex
 90
      256
102
RTVSPost2010Prop51ColorRGB
 90
-16777216
102
RTVSPost2010PropOp51
 70
     0
102
RTVSPost2010Prop52
140
1.0
102
RTVSPost2010PropOp52
 70
     0
102
RTVSPost2010Prop53
 90
        2
102
RTVSPost2010PropOp53
 70
     1
102
RTVSPost2010Prop54
  1
strokes_ogs.tif
102
RTVSPost2010PropOp54
 70
     1
102
RTVSPost2010Prop55
280
     0
102
RTVSPost2010PropOp55
 70
     1
102
RTVSPost2010Prop56
140
1.0
102
RTVSPost2010PropOp56
 70
     1
102
RTVSPost2010Prop57
140
1.0
102
RTVSPost2010PropOp57
 70
     1
102
RTVSPropertyOp0
 70
     1
102
RTVSPropertyOp1
 70
     1
102
RTVSPropertyOp2
 70
     1
102
RTVSPropertyOp3
 70
     1
102
RTVSPropertyOp4
 70
     1
102
RTVSPropertyOp5
 70
     1
102
RTVSPropertyOp6
 70
     1
102
RTVSPropertyOp7
 70
     1
102
RTVSPropertyOp8
 70
     1
102
RTVSPropertyOp9
 70
     1
102
RTVSPropertyOp10
 70
     1
102
RTVSPropertyOp11
 70
     1
102
RTVSPropertyOp12
 70
     1
102
RTVSPropertyOp13
 70
     1
102
RTVSPropertyOp14
 70
     1
102
RTVSPropertyOp15
 70
     1
102
RTVSPropertyOp16
 70
     1
102
RTVSPropertyOp17
 70
     1
102
RTVSPropertyOp18
 70
     1
102
RTVSPropertyOp19
 70
     1
102
RTVSPropertyOp20
 70
     1
102
RTVSPropertyOp21
 70
     1
102
RTVSPropertyOp22
 70
     1
102
RTVSPropertyOp23
 70
     1
102
RTVSPropertyOp24
 70
     1
102
RTVSPropertyOp25
 70
     1
102
RTVSPropertyOp26
 70
     1
102
RTVSPropertyOp27
 70
     1
102
RTVSPropertyOp28
 70
     1
102
RTVSPropertyOp29
 70
     1
102
RTVSPropertyOp30
 70
     1
102
RTVSPropertyOp31
 70
     1
102
RTVSPropertyOp32
 70
     1
102
RTVSPropertyOp33
 70
     1
102
RTVSPropertyOp34
 70
     1
102
RTVSPropertyOp35
 70
     1
102
RTVSPropertyOp36
 70
     1
102
RTVSPropertyOp37
 70
     1
102
RTVSPropertyOp38
 70
     1
102
RTVSPropertyOp39
 70
     1
102
RTVSPropertyOp40
 70
     1
102
RTVSPropertyOp41
 70
     1
102
RTVSPropertyOp42
 70
     1
102
RTVSPropertyOp43
 70
     1
102
RTVSPropertyOp44
 70
     1
102
RTVSPropertyOp45
 70
     1
102
RTVSPropertyOp46
 70
     1
102
RTVSPropertyOp47
 70
     1
102
RTVSPropertyOp48
 70
     1
102
RTVSPropertyOp49
 70
     1
102
RTVSPropertyOp50
 70
     1
102
RTVSPropertyOp51
 70
     0
102
RTVSPropertyOp52
 70
     0
102
RTVSPropertyOp53
 70
     1
102
RTVSPropertyOp54
 70
     1
102
RTVSPropertyOp55
 70
     1
102
RTVSPropertyOp56
 70
     1
102
RTVSPropertyOp57
 70
     1
102
RTVSPropertyOp58
 70
     1
102
RTVSPropertyOp59
 70
     1
102
RTVSPropertyOp60
 70
     1
102
RTVSPropertyOp61
 70
     1
102
RTVSPropertyOp62
 70
     1
  0
XRECORD
  5
4B9
102
{ACAD_REACTORS
330
4B8
102
}
330
4B8
100
AcDbXrecord
280
     1
102
RTVSPost2010Prop28
280
     0
102
RTVSPost2010PropOp28
 70
     1
102
RTVSPost2010Prop29
280
     1
102
RTVSPost2010PropOp29
 70
     1
102
RTVSPost2010Prop30
280
     1
102
RTVSPost2010PropOp30
 70
     1
102
RTVSPost2010Prop31
280
     0
102
RTVSPost2010PropOp31
 70
     1
102
RTVSPost2010Prop32
280
     0
102
RTVSPost2010PropOp32
 70
     1
102
RTVSPost2010Prop33
280
     0
102
RTVSPost2010PropOp33
 70
     1
102
RTVSPost2010Prop34
280
     0
102
RTVSPost2010PropOp34
 70
     1
102
RTVSPost2010Prop35
280
     0
102
RTVSPost2010PropOp35
 70
     1
102
RTVSPost2010Prop36
280
     0
102
RTVSPost2010PropOp36
 70
     1
102
RTVSPost2010Prop37
 90
       50
102
RTVSPost2010PropOp37
 70
     1
102
RTVSPost2010Prop38
140
0.0
102
RTVSPost2010PropOp38
 70
     1
102
RTVSPost2010Prop39
140
1.0
102
RTVSPost2010PropOp39
 70
     1
102
RTVSPost2010Prop40
 90
        0
102
RTVSPost2010PropOp40
 70
     1
102
RTVSPost2010Prop41ColorIndex
 90
       18
102
RTVSPost2010Prop41ColorRGB
 90
        0
102
RTVSPost2010PropOp41
 70
     1
102
RTVSPost2010Prop42
 90
       50
102
RTVSPost2010PropOp42
 70
     1
102
RTVSPost2010Prop43
 90
        3
102
RTVSPost2010PropOp43
 70
     1
102
RTVSPost2010Prop44ColorIndex
 90
        5
102
RTVSPost2010Prop44ColorRGB
 90
      255
102
RTVSPost2010PropOp44
 70
     1
102
RTVSPost2010Prop45
280
     0
102
RTVSPost2010PropOp45
 70
     1
102
RTVSPost2010Prop46
 90
       50
102
RTVSPost2010PropOp46
 70
     1
102
RTVSPost2010Prop47
 90
       50
102
RTVSPost2010PropOp47
 70
     1
102
RTVSPost2010Prop48
 90
       50
102
RTVSPost2010PropOp48
 70
     1
102
RTVSPost2010Prop49
280
     0
102
RTVSPost2010PropOp49
 70
     1
102
RTVSPost2010Prop50
 90
       50
102
RTVSPost2010PropOp50
 70
     1
102
RTVSPost2010Prop51ColorIndex
 90
      256
102
RTVSPost2010Prop51ColorRGB
 90
-16777216
102
RTVSPost2010PropOp51
 70
     0
102
RTVSPost2010Prop52
140
1.0
102
RTVSPost2010PropOp52
 70
     0
102
RTVSPost2010Prop53
 90
        2
102
RTVSPost2010PropOp53
 70
     1
102
RTVSPost2010Prop54
  1
strokes_ogs.tif
102
RTVSPost2010PropOp54
 70
     1
102
RTVSPost2010Prop55
280
     0
102
RTVSPost2010PropOp55
 70
     1
102
RTVSPost2010Prop56
140
1.0
102
RTVSPost2010PropOp56
 70
     1
102
RTVSPost2010Prop57
140
1.0
102
RTVSPost2010PropOp57
 70
     1
102
RTVSPropertyOp0
 70
     1
102
RTVSPropertyOp1
 70
     1
102
RTVSPropertyOp2
 70
     1
102
RTVSPropertyOp3
 70
     1
102
RTVSPropertyOp4
 70
     1
102
RTVSPropertyOp5
 70
     1
102
RTVSPropertyOp6
 70
     1
102
RTVSPropertyOp7
 70
     1
102
RTVSPropertyOp8
 70
     1
102
RTVSPropertyOp9
 70
     1
102
RTVSPropertyOp10
 70
     1
102
RTVSPropertyOp11
 70
     1
102
RTVSPropertyOp12
 70
     1
102
RTVSPropertyOp13
 70
     1
102
RTVSPropertyOp14
 70
     1
102
RTVSPropertyOp15
 70
     1
102
RTVSPropertyOp16
 70
     1
102
RTVSPropertyOp17
 70
     1
102
RTVSPropertyOp18
 70
     1
102
RTVSPropertyOp19
 70
     1
102
RTVSPropertyOp20
 70
     1
102
RTVSPropertyOp21
 70
     1
102
RTVSPropertyOp22
 70
     1
102
RTVSPropertyOp23
 70
     1
102
RTVSPropertyOp24
 70
     1
102
RTVSPropertyOp25
 70
     1
102
RTVSPropertyOp26
 70
     1
102
RTVSPropertyOp27
 70
     1
102
RTVSPropertyOp28
 70
     1
102
RTVSPropertyOp29
 70
     1
102
RTVSPropertyOp30
 70
     1
102
RTVSPropertyOp31
 70
     1
102
RTVSPropertyOp32
 70
     1
102
RTVSPropertyOp33
 70
     1
102
RTVSPropertyOp34
 70
     1
102
RTVSPropertyOp35
 70
     1
102
RTVSPropertyOp36
 70
     1
102
RTVSPropertyOp37
 70
     1
102
RTVSPropertyOp38
 70
     1
102
RTVSPropertyOp39
 70
     1
102
RTVSPropertyOp40
 70
     1
102
RTVSPropertyOp41
 70
     1
102
RTVSPropertyOp42
 70
     1
102
RTVSPropertyOp43
 70
     1
102
RTVSPropertyOp44
 70
     1
102
RTVSPropertyOp45
 70
     1
102
RTVSPropertyOp46
 70
     1
102
RTVSPropertyOp47
 70
     1
102
RTVSPropertyOp48
 70
     1
102
RTVSPropertyOp49
 70
     1
102
RTVSPropertyOp50
 70
     1
102
RTVSPropertyOp51
 70
     0
102
RTVSPropertyOp52
 70
     0
102
RTVSPropertyOp53
 70
     1
102
RTVSPropertyOp54
 70
     1
102
RTVSPropertyOp55
 70
     1
102
RTVSPropertyOp56
 70
     1
102
RTVSPropertyOp57
 70
     1
102
RTVSPropertyOp58
 70
     1
102
RTVSPropertyOp59
 70
     1
102
RTVSPropertyOp60
 70
     1
102
RTVSPropertyOp61
 70
     1
102
RTVSPropertyOp62
 70
     1
  0
XRECORD
  5
4BB
102
{ACAD_REACTORS
330
4BA
102
}
330
4BA
100
AcDbXrecord
280
     1
102
RTVSPost2010Prop28
280
     0
102
RTVSPost2010PropOp28
 70
     1
102
RTVSPost2010Prop29
280
     1
102
RTVSPost2010PropOp29
 70
     1
102
RTVSPost2010Prop30
280
     1
102
RTVSPost2010PropOp30
 70
     1
102
RTVSPost2010Prop31
280
     0
102
RTVSPost2010PropOp31
 70
     1
102
RTVSPost2010Prop32
280
     0
102
RTVSPost2010PropOp32
 70
     1
102
RTVSPost2010Prop33
280
     0
102
RTVSPost2010PropOp33
 70
     1
102
RTVSPost2010Prop34
280
     0
102
RTVSPost2010PropOp34
 70
     1
102
RTVSPost2010Prop35
280
     0
102
RTVSPost2010PropOp35
 70
     1
102
RTVSPost2010Prop36
280
     0
102
RTVSPost2010PropOp36
 70
     1
102
RTVSPost2010Prop37
 90
       50
102
RTVSPost2010PropOp37
 70
     1
102
RTVSPost2010Prop38
140
0.0
102
RTVSPost2010PropOp38
 70
     1
102
RTVSPost2010Prop39
140
1.0
102
RTVSPost2010PropOp39
 70
     1
102
RTVSPost2010Prop40
 90
        0
102
RTVSPost2010PropOp40
 70
     1
102
RTVSPost2010Prop41ColorIndex
 90
       18
102
RTVSPost2010Prop41ColorRGB
 90
        0
102
RTVSPost2010PropOp41
 70
     1
102
RTVSPost2010Prop42
 90
       50
102
RTVSPost2010PropOp42
 70
     1
102
RTVSPost2010Prop43
 90
        3
102
RTVSPost2010PropOp43
 70
     1
102
RTVSPost2010Prop44ColorIndex
 90
        5
102
RTVSPost2010Prop44ColorRGB
 90
      255
102
RTVSPost2010PropOp44
 70
     1
102
RTVSPost2010Prop45
280
     0
102
RTVSPost2010PropOp45
 70
     1
102
RTVSPost2010Prop46
 90
       50
102
RTVSPost2010PropOp46
 70
     1
102
RTVSPost2010Prop47
 90
       50
102
RTVSPost2010PropOp47
 70
     1
102
RTVSPost2010Prop48
 90
       50
102
RTVSPost2010PropOp48
 70
     1
102
RTVSPost2010Prop49
280
     0
102
RTVSPost2010PropOp49
 70
     1
102
RTVSPost2010Prop50
 90
       50
102
RTVSPost2010PropOp50
 70
     1
102
RTVSPost2010Prop51ColorIndex
 90
      256
102
RTVSPost2010Prop51ColorRGB
 90
-16777216
102
RTVSPost2010PropOp51
 70
     0
102
RTVSPost2010Prop52
140
1.0
102
RTVSPost2010PropOp52
 70
     0
102
RTVSPost2010Prop53
 90
        2
102
RTVSPost2010PropOp53
 70
     1
102
RTVSPost2010Prop54
  1
strokes_ogs.tif
102
RTVSPost2010PropOp54
 70
     1
102
RTVSPost2010Prop55
280
     0
102
RTVSPost2010PropOp55
 70
     1
102
RTVSPost2010Prop56
140
1.0
102
RTVSPost2010PropOp56
 70
     1
102
RTVSPost2010Prop57
140
1.0
102
RTVSPost2010PropOp57
 70
     1
102
RTVSPropertyOp0
 70
     1
102
RTVSPropertyOp1
 70
     1
102
RTVSPropertyOp2
 70
     1
102
RTVSPropertyOp3
 70
     1
102
RTVSPropertyOp4
 70
     1
102
RTVSPropertyOp5
 70
     1
102
RTVSPropertyOp6
 70
     1
102
RTVSPropertyOp7
 70
     1
102
RTVSPropertyOp8
 70
     1
102
RTVSPropertyOp9
 70
     1
102
RTVSPropertyOp10
 70
     1
102
RTVSPropertyOp11
 70
     1
102
RTVSPropertyOp12
 70
     1
102
RTVSPropertyOp13
 70
     1
102
RTVSPropertyOp14
 70
     1
102
RTVSPropertyOp15
 70
     1
102
RTVSPropertyOp16
 70
     1
102
RTVSPropertyOp17
 70
     1
102
RTVSPropertyOp18
 70
     1
102
RTVSPropertyOp19
 70
     1
102
RTVSPropertyOp20
 70
     1
102
RTVSPropertyOp21
 70
     1
102
RTVSPropertyOp22
 70
     1
102
RTVSPropertyOp23
 70
     1
102
RTVSPropertyOp24
 70
     1
102
RTVSPropertyOp25
 70
     1
102
RTVSPropertyOp26
 70
     1
102
RTVSPropertyOp27
 70
     1
102
RTVSPropertyOp28
 70
     1
102
RTVSPropertyOp29
 70
     1
102
RTVSPropertyOp30
 70
     1
102
RTVSPropertyOp31
 70
     1
102
RTVSPropertyOp32
 70
     1
102
RTVSPropertyOp33
 70
     1
102
RTVSPropertyOp34
 70
     1
102
RTVSPropertyOp35
 70
     1
102
RTVSPropertyOp36
 70
     1
102
RTVSPropertyOp37
 70
     1
102
RTVSPropertyOp38
 70
     1
102
RTVSPropertyOp39
 70
     1
102
RTVSPropertyOp40
 70
     1
102
RTVSPropertyOp41
 70
     1
102
RTVSPropertyOp42
 70
     1
102
RTVSPropertyOp43
 70
     1
102
RTVSPropertyOp44
 70
     1
102
RTVSPropertyOp45
 70
     1
102
RTVSPropertyOp46
 70
     1
102
RTVSPropertyOp47
 70
     1
102
RTVSPropertyOp48
 70
     1
102
RTVSPropertyOp49
 70
     1
102
RTVSPropertyOp50
 70
     1
102
RTVSPropertyOp51
 70
     0
102
RTVSPropertyOp52
 70
     0
102
RTVSPropertyOp53
 70
     1
102
RTVSPropertyOp54
 70
     1
102
RTVSPropertyOp55
 70
     1
102
RTVSPropertyOp56
 70
     1
102
RTVSPropertyOp57
 70
     1
102
RTVSPropertyOp58
 70
     1
102
RTVSPropertyOp59
 70
     1
102
RTVSPropertyOp60
 70
     1
102
RTVSPropertyOp61
 70
     1
102
RTVSPropertyOp62
 70
     1
  0
XRECORD
  5
4BD
102
{ACAD_REACTORS
330
4BC
102
}
330
4BC
100
AcDbXrecord
280
     1
102
RTVSPost2010Prop28
280
     0
102
RTVSPost2010PropOp28
 70
     1
102
RTVSPost2010Prop29
280
     1
102
RTVSPost2010PropOp29
 70
     1
102
RTVSPost2010Prop30
280
     1
102
RTVSPost2010PropOp30
 70
     1
102
RTVSPost2010Prop31
280
     0
102
RTVSPost2010PropOp31
 70
     1
102
RTVSPost2010Prop32
280
     0
102
RTVSPost2010PropOp32
 70
     1
102
RTVSPost2010Prop33
280
     0
102
RTVSPost2010PropOp33
 70
     1
102
RTVSPost2010Prop34
280
     0
102
RTVSPost2010PropOp34
 70
     1
102
RTVSPost2010Prop35
280
     0
102
RTVSPost2010PropOp35
 70
     1
102
RTVSPost2010Prop36
280
     0
102
RTVSPost2010PropOp36
 70
     1
102
RTVSPost2010Prop37
 90
       50
102
RTVSPost2010PropOp37
 70
     1
102
RTVSPost2010Prop38
140
0.0
102
RTVSPost2010PropOp38
 70
     1
102
RTVSPost2010Prop39
140
1.0
102
RTVSPost2010PropOp39
 70
     1
102
RTVSPost2010Prop40
 90
        0
102
RTVSPost2010PropOp40
 70
     1
102
RTVSPost2010Prop41ColorIndex
 90
       18
102
RTVSPost2010Prop41ColorRGB
 90
        0
102
RTVSPost2010PropOp41
 70
     1
102
RTVSPost2010Prop42
 90
       50
102
RTVSPost2010PropOp42
 70
     1
102
RTVSPost2010Prop43
 90
        3
102
RTVSPost2010PropOp43
 70
     1
102
RTVSPost2010Prop44ColorIndex
 90
        5
102
RTVSPost2010Prop44ColorRGB
 90
      255
102
RTVSPost2010PropOp44
 70
     1
102
RTVSPost2010Prop45
280
     0
102
RTVSPost2010PropOp45
 70
     1
102
RTVSPost2010Prop46
 90
       50
102
RTVSPost2010PropOp46
 70
     1
102
RTVSPost2010Prop47
 90
       50
102
RTVSPost2010PropOp47
 70
     1
102
RTVSPost2010Prop48
 90
       50
102
RTVSPost2010PropOp48
 70
     1
102
RTVSPost2010Prop49
280
     0
102
RTVSPost2010PropOp49
 70
     1
102
RTVSPost2010Prop50
 90
       50
102
RTVSPost2010PropOp50
 70
     1
102
RTVSPost2010Prop51ColorIndex
 90
      256
102
RTVSPost2010Prop51ColorRGB
 90
-16777216
102
RTVSPost2010PropOp51
 70
     0
102
RTVSPost2010Prop52
140
1.0
102
RTVSPost2010PropOp52
 70
     0
102
RTVSPost2010Prop53
 90
        2
102
RTVSPost2010PropOp53
 70
     1
102
RTVSPost2010Prop54
  1
strokes_ogs.tif
102
RTVSPost2010PropOp54
 70
     1
102
RTVSPost2010Prop55
280
     0
102
RTVSPost2010PropOp55
 70
     1
102
RTVSPost2010Prop56
140
1.0
102
RTVSPost2010PropOp56
 70
     1
102
RTVSPost2010Prop57
140
1.0
102
RTVSPost2010PropOp57
 70
     1
102
RTVSPropertyOp0
 70
     1
102
RTVSPropertyOp1
 70
     1
102
RTVSPropertyOp2
 70
     1
102
RTVSPropertyOp3
 70
     1
102
RTVSPropertyOp4
 70
     1
102
RTVSPropertyOp5
 70
     1
102
RTVSPropertyOp6
 70
     1
102
RTVSPropertyOp7
 70
     1
102
RTVSPropertyOp8
 70
     1
102
RTVSPropertyOp9
 70
     1
102
RTVSPropertyOp10
 70
     1
102
RTVSPropertyOp11
 70
     1
102
RTVSPropertyOp12
 70
     1
102
RTVSPropertyOp13
 70
     1
102
RTVSPropertyOp14
 70
     1
102
RTVSPropertyOp15
 70
     1
102
RTVSPropertyOp16
 70
     1
102
RTVSPropertyOp17
 70
     1
102
RTVSPropertyOp18
 70
     1
102
RTVSPropertyOp19
 70
     1
102
RTVSPropertyOp20
 70
     1
102
RTVSPropertyOp21
 70
     1
102
RTVSPropertyOp22
 70
     1
102
RTVSPropertyOp23
 70
     1
102
RTVSPropertyOp24
 70
     1
102
RTVSPropertyOp25
 70
     1
102
RTVSPropertyOp26
 70
     1
102
RTVSPropertyOp27
 70
     1
102
RTVSPropertyOp28
 70
     1
102
RTVSPropertyOp29
 70
     1
102
RTVSPropertyOp30
 70
     1
102
RTVSPropertyOp31
 70
     1
102
RTVSPropertyOp32
 70
     1
102
RTVSPropertyOp33
 70
     1
102
RTVSPropertyOp34
 70
     1
102
RTVSPropertyOp35
 70
     1
102
RTVSPropertyOp36
 70
     1
102
RTVSPropertyOp37
 70
     1
102
RTVSPropertyOp38
 70
     1
102
RTVSPropertyOp39
 70
     1
102
RTVSPropertyOp40
 70
     1
102
RTVSPropertyOp41
 70
     1
102
RTVSPropertyOp42
 70
     1
102
RTVSPropertyOp43
 70
     1
102
RTVSPropertyOp44
 70
     1
102
RTVSPropertyOp45
 70
     1
102
RTVSPropertyOp46
 70
     1
102
RTVSPropertyOp47
 70
     1
102
RTVSPropertyOp48
 70
     1
102
RTVSPropertyOp49
 70
     1
102
RTVSPropertyOp50
 70
     1
102
RTVSPropertyOp51
 70
     0
102
RTVSPropertyOp52
 70
     0
102
RTVSPropertyOp53
 70
     1
102
RTVSPropertyOp54
 70
     1
102
RTVSPropertyOp55
 70
     1
102
RTVSPropertyOp56
 70
     1
102
RTVSPropertyOp57
 70
     1
102
RTVSPropertyOp58
 70
     1
102
RTVSPropertyOp59
 70
     1
102
RTVSPropertyOp60
 70
     1
102
RTVSPropertyOp61
 70
     1
102
RTVSPropertyOp62
 70
     1
  0
XRECORD
  5
4C5
102
{ACAD_REACTORS
330
4C4
102
}
330
4C4
100
AcDbXrecord
280
     1
102
RTVSPost2010Prop28
280
     0
102
RTVSPost2010PropOp28
 70
     1
102
RTVSPost2010Prop29
280
     1
102
RTVSPost2010PropOp29
 70
     1
102
RTVSPost2010Prop30
280
     1
102
RTVSPost2010PropOp30
 70
     1
102
RTVSPost2010Prop31
280
     0
102
RTVSPost2010PropOp31
 70
     1
102
RTVSPost2010Prop32
280
     0
102
RTVSPost2010PropOp32
 70
     1
102
RTVSPost2010Prop33
280
     0
102
RTVSPost2010PropOp33
 70
     1
102
RTVSPost2010Prop34
280
     0
102
RTVSPost2010PropOp34
 70
     1
102
RTVSPost2010Prop35
280
     0
102
RTVSPost2010PropOp35
 70
     1
102
RTVSPost2010Prop36
280
     0
102
RTVSPost2010PropOp36
 70
     1
102
RTVSPost2010Prop37
 90
       50
102
RTVSPost2010PropOp37
 70
     1
102
RTVSPost2010Prop38
140
0.0
102
RTVSPost2010PropOp38
 70
     1
102
RTVSPost2010Prop39
140
1.0
102
RTVSPost2010PropOp39
 70
     1
102
RTVSPost2010Prop40
 90
        0
102
RTVSPost2010PropOp40
 70
     1
102
RTVSPost2010Prop41ColorIndex
 90
       18
102
RTVSPost2010Prop41ColorRGB
 90
        0
102
RTVSPost2010PropOp41
 70
     1
102
RTVSPost2010Prop42
 90
       50
102
RTVSPost2010PropOp42
 70
     1
102
RTVSPost2010Prop43
 90
        3
102
RTVSPost2010PropOp43
 70
     1
102
RTVSPost2010Prop44ColorIndex
 90
        5
102
RTVSPost2010Prop44ColorRGB
 90
      255
102
RTVSPost2010PropOp44
 70
     1
102
RTVSPost2010Prop45
280
     0
102
RTVSPost2010PropOp45
 70
     1
102
RTVSPost2010Prop46
 90
       50
102
RTVSPost2010PropOp46
 70
     1
102
RTVSPost2010Prop47
 90
       50
102
RTVSPost2010PropOp47
 70
     1
102
RTVSPost2010Prop48
 90
       50
102
RTVSPost2010PropOp48
 70
     1
102
RTVSPost2010Prop49
280
     0
102
RTVSPost2010PropOp49
 70
     1
102
RTVSPost2010Prop50
 90
       50
102
RTVSPost2010PropOp50
 70
     1
102
RTVSPost2010Prop51ColorIndex
 90
      256
102
RTVSPost2010Prop51ColorRGB
 90
-16777216
102
RTVSPost2010PropOp51
 70
     0
102
RTVSPost2010Prop52
140
1.0
102
RTVSPost2010PropOp52
 70
     0
102
RTVSPost2010Prop53
 90
        2
102
RTVSPost2010PropOp53
 70
     1
102
RTVSPost2010Prop54
  1
strokes_ogs.tif
102
RTVSPost2010PropOp54
 70
     1
102
RTVSPost2010Prop55
280
     0
102
RTVSPost2010PropOp55
 70
     1
102
RTVSPost2010Prop56
140
1.0
102
RTVSPost2010PropOp56
 70
     1
102
RTVSPost2010Prop57
140
1.0
102
RTVSPost2010PropOp57
 70
     1
102
RTVSPropertyOp0
 70
     1
102
RTVSPropertyOp1
 70
     1
102
RTVSPropertyOp2
 70
     1
102
RTVSPropertyOp3
 70
     1
102
RTVSPropertyOp4
 70
     1
102
RTVSPropertyOp5
 70
     1
102
RTVSPropertyOp6
 70
     1
102
RTVSPropertyOp7
 70
     1
102
RTVSPropertyOp8
 70
     1
102
RTVSPropertyOp9
 70
     1
102
RTVSPropertyOp10
 70
     1
102
RTVSPropertyOp11
 70
     1
102
RTVSPropertyOp12
 70
     1
102
RTVSPropertyOp13
 70
     1
102
RTVSPropertyOp14
 70
     1
102
RTVSPropertyOp15
 70
     1
102
RTVSPropertyOp16
 70
     1
102
RTVSPropertyOp17
 70
     1
102
RTVSPropertyOp18
 70
     1
102
RTVSPropertyOp19
 70
     1
102
RTVSPropertyOp20
 70
     1
102
RTVSPropertyOp21
 70
     1
102
RTVSPropertyOp22
 70
     1
102
RTVSPropertyOp23
 70
     1
102
RTVSPropertyOp24
 70
     1
102
RTVSPropertyOp25
 70
     1
102
RTVSPropertyOp26
 70
     1
102
RTVSPropertyOp27
 70
     1
102
RTVSPropertyOp28
 70
     1
102
RTVSPropertyOp29
 70
     1
102
RTVSPropertyOp30
 70
     1
102
RTVSPropertyOp31
 70
     1
102
RTVSPropertyOp32
 70
     1
102
RTVSPropertyOp33
 70
     1
102
RTVSPropertyOp34
 70
     1
102
RTVSPropertyOp35
 70
     1
102
RTVSPropertyOp36
 70
     1
102
RTVSPropertyOp37
 70
     1
102
RTVSPropertyOp38
 70
     1
102
RTVSPropertyOp39
 70
     1
102
RTVSPropertyOp40
 70
     1
102
RTVSPropertyOp41
 70
     1
102
RTVSPropertyOp42
 70
     1
102
RTVSPropertyOp43
 70
     1
102
RTVSPropertyOp44
 70
     1
102
RTVSPropertyOp45
 70
     1
102
RTVSPropertyOp46
 70
     1
102
RTVSPropertyOp47
 70
     1
102
RTVSPropertyOp48
 70
     1
102
RTVSPropertyOp49
 70
     1
102
RTVSPropertyOp50
 70
     1
102
RTVSPropertyOp51
 70
     0
102
RTVSPropertyOp52
 70
     0
102
RTVSPropertyOp53
 70
     1
102
RTVSPropertyOp54
 70
     1
102
RTVSPropertyOp55
 70
     1
102
RTVSPropertyOp56
 70
     1
102
RTVSPropertyOp57
 70
     1
102
RTVSPropertyOp58
 70
     1
102
RTVSPropertyOp59
 70
     1
102
RTVSPropertyOp60
 70
     1
102
RTVSPropertyOp61
 70
     1
102
RTVSPropertyOp62
 70
     1
  0
XRECORD
  5
4E1
102
{ACAD_REACTORS
330
4E0
102
}
330
4E0
100
AcDbXrecord
280
     1
102
RTVSPost2010Prop28
280
     0
102
RTVSPost2010PropOp28
 70
     1
102
RTVSPost2010Prop29
280
     1
102
RTVSPost2010PropOp29
 70
     1
102
RTVSPost2010Prop30
280
     1
102
RTVSPost2010PropOp30
 70
     1
102
RTVSPost2010Prop31
280
     0
102
RTVSPost2010PropOp31
 70
     1
102
RTVSPost2010Prop32
280
     0
102
RTVSPost2010PropOp32
 70
     1
102
RTVSPost2010Prop33
280
     0
102
RTVSPost2010PropOp33
 70
     1
102
RTVSPost2010Prop34
280
     0
102
RTVSPost2010PropOp34
 70
     1
102
RTVSPost2010Prop35
280
     0
102
RTVSPost2010PropOp35
 70
     1
102
RTVSPost2010Prop36
280
     0
102
RTVSPost2010PropOp36
 70
     1
102
RTVSPost2010Prop37
 90
       50
102
RTVSPost2010PropOp37
 70
     0
102
RTVSPost2010Prop38
140
0.0
102
RTVSPost2010PropOp38
 70
     0
102
RTVSPost2010Prop39
140
1.0
102
RTVSPost2010PropOp39
 70
     0
102
RTVSPost2010Prop40
 90
        0
102
RTVSPost2010PropOp40
 70
     0
102
RTVSPost2010Prop41ColorIndex
 90
       18
102
RTVSPost2010Prop41ColorRGB
 90
        0
102
RTVSPost2010PropOp41
 70
     0
102
RTVSPost2010Prop42
 90
       50
102
RTVSPost2010PropOp42
 70
     0
102
RTVSPost2010Prop43
 90
        3
102
RTVSPost2010PropOp43
 70
     0
102
RTVSPost2010Prop44ColorIndex
 90
        5
102
RTVSPost2010Prop44ColorRGB
 90
      255
102
RTVSPost2010PropOp44
 70
     0
102
RTVSPost2010Prop45
280
     0
102
RTVSPost2010PropOp45
 70
     1
102
RTVSPost2010Prop46
 90
       50
102
RTVSPost2010PropOp46
 70
     0
102
RTVSPost2010Prop47
 90
       50
102
RTVSPost2010PropOp47
 70
     0
102
RTVSPost2010Prop48
 90
       50
102
RTVSPost2010PropOp48
 70
     0
102
RTVSPost2010Prop49
280
     0
102
RTVSPost2010PropOp49
 70
     1
102
RTVSPost2010Prop50
 90
       50
102
RTVSPost2010PropOp50
 70
     0
102
RTVSPost2010Prop51ColorIndex
 90
      256
102
RTVSPost2010Prop51ColorRGB
 90
-16777216
102
RTVSPost2010PropOp51
 70
     0
102
RTVSPost2010Prop52
140
1.0
102
RTVSPost2010PropOp52
 70
     0
102
RTVSPost2010Prop53
 90
        2
102
RTVSPost2010PropOp53
 70
     0
102
RTVSPost2010Prop54
  1
strokes_ogs.tif
102
RTVSPost2010PropOp54
 70
     0
102
RTVSPost2010Prop55
280
     0
102
RTVSPost2010PropOp55
 70
     1
102
RTVSPost2010Prop56
140
1.0
102
RTVSPost2010PropOp56
 70
     0
102
RTVSPost2010Prop57
140
1.0
102
RTVSPost2010PropOp57
 70
     0
102
RTVSPropertyOp0
 70
     0
102
RTVSPropertyOp1
 70
     0
102
RTVSPropertyOp2
 70
     0
102
RTVSPropertyOp3
 70
     0
102
RTVSPropertyOp4
 70
     0
102
RTVSPropertyOp5
 70
     0
102
RTVSPropertyOp6
 70
     0
102
RTVSPropertyOp7
 70
     0
102
RTVSPropertyOp8
 70
     0
102
RTVSPropertyOp9
 70
     0
102
RTVSPropertyOp10
 70
     0
102
RTVSPropertyOp11
 70
     0
102
RTVSPropertyOp12
 70
     0
102
RTVSPropertyOp13
 70
     0
102
RTVSPropertyOp14
 70
     2
102
RTVSPropertyOp15
 70
     0
102
RTVSPropertyOp16
 70
     0
102
RTVSPropertyOp17
 70
     0
102
RTVSPropertyOp18
 70
     0
102
RTVSPropertyOp19
 70
     0
102
RTVSPropertyOp20
 70
     0
102
RTVSPropertyOp21
 70
     0
102
RTVSPropertyOp22
 70
     0
102
RTVSPropertyOp23
 70
     0
102
RTVSPropertyOp24
 70
     0
102
RTVSPropertyOp25
 70
     0
102
RTVSPropertyOp26
 70
     0
102
RTVSPropertyOp27
 70
     0
102
RTVSPropertyOp28
 70
     1
102
RTVSPropertyOp29
 70
     1
102
RTVSPropertyOp30
 70
     1
102
RTVSPropertyOp31
 70
     1
102
RTVSPropertyOp32
 70
     1
102
RTVSPropertyOp33
 70
     1
102
RTVSPropertyOp34
 70
     1
102
RTVSPropertyOp35
 70
     1
102
RTVSPropertyOp36
 70
     1
102
RTVSPropertyOp37
 70
     0
102
RTVSPropertyOp38
 70
     0
102
RTVSPropertyOp39
 70
     0
102
RTVSPropertyOp40
 70
     0
102
RTVSPropertyOp41
 70
     0
102
RTVSPropertyOp42
 70
     0
102
RTVSPropertyOp43
 70
     0
102
RTVSPropertyOp44
 70
     0
102
RTVSPropertyOp45
 70
     1
102
RTVSPropertyOp46
 70
     0
102
RTVSPropertyOp47
 70
     0
102
RTVSPropertyOp48
 70
     0
102
RTVSPropertyOp49
 70
     1
102
RTVSPropertyOp50
 70
     0
102
RTVSPropertyOp51
 70
     0
102
RTVSPropertyOp52
 70
     0
102
RTVSPropertyOp53
 70
     0
102
RTVSPropertyOp54
 70
     0
102
RTVSPropertyOp55
 70
     1
102
RTVSPropertyOp56
 70
     0
102
RTVSPropertyOp57
 70
     0
102
RTVSPropertyOp58
 70
     0
102
RTVSPropertyOp59
 70
     0
102
RTVSPropertyOp60
 70
     0
102
RTVSPropertyOp61
 70
     0
102
RTVSPropertyOp62
 70
     0
  0
XRECORD
  5
4D1
102
{ACAD_REACTORS
330
4D0
102
}
330
4D0
100
AcDbXrecord
280
     1
102
RTVSPost2010Prop28
280
     0
102
RTVSPost2010PropOp28
 70
     1
102
RTVSPost2010Prop29
280
     1
102
RTVSPost2010PropOp29
 70
     1
102
RTVSPost2010Prop30
280
     1
102
RTVSPost2010PropOp30
 70
     1
102
RTVSPost2010Prop31
280
     0
102
RTVSPost2010PropOp31
 70
     1
102
RTVSPost2010Prop32
280
     0
102
RTVSPost2010PropOp32
 70
     1
102
RTVSPost2010Prop33
280
     0
102
RTVSPost2010PropOp33
 70
     1
102
RTVSPost2010Prop34
280
     0
102
RTVSPost2010PropOp34
 70
     1
102
RTVSPost2010Prop35
280
     0
102
RTVSPost2010PropOp35
 70
     1
102
RTVSPost2010Prop36
280
     0
102
RTVSPost2010PropOp36
 70
     1
102
RTVSPost2010Prop37
 90
       50
102
RTVSPost2010PropOp37
 70
     1
102
RTVSPost2010Prop38
140
0.0
102
RTVSPost2010PropOp38
 70
     1
102
RTVSPost2010Prop39
140
1.0
102
RTVSPost2010PropOp39
 70
     1
102
RTVSPost2010Prop40
 90
        0
102
RTVSPost2010PropOp40
 70
     1
102
RTVSPost2010Prop41ColorIndex
 90
       18
102
RTVSPost2010Prop41ColorRGB
 90
        0
102
RTVSPost2010PropOp41
 70
     1
102
RTVSPost2010Prop42
 90
       50
102
RTVSPost2010PropOp42
 70
     1
102
RTVSPost2010Prop43
 90
        3
102
RTVSPost2010PropOp43
 70
     1
102
RTVSPost2010Prop44ColorIndex
 90
        5
102
RTVSPost2010Prop44ColorRGB
 90
      255
102
RTVSPost2010PropOp44
 70
     1
102
RTVSPost2010Prop45
280
     0
102
RTVSPost2010PropOp45
 70
     1
102
RTVSPost2010Prop46
 90
       50
102
RTVSPost2010PropOp46
 70
     1
102
RTVSPost2010Prop47
 90
       50
102
RTVSPost2010PropOp47
 70
     1
102
RTVSPost2010Prop48
 90
       50
102
RTVSPost2010PropOp48
 70
     1
102
RTVSPost2010Prop49
280
     0
102
RTVSPost2010PropOp49
 70
     1
102
RTVSPost2010Prop50
 90
       50
102
RTVSPost2010PropOp50
 70
     1
102
RTVSPost2010Prop51ColorIndex
 90
      256
102
RTVSPost2010Prop51ColorRGB
 90
-16777216
102
RTVSPost2010PropOp51
 70
     0
102
RTVSPost2010Prop52
140
1.0
102
RTVSPost2010PropOp52
 70
     0
102
RTVSPost2010Prop53
 90
        2
102
RTVSPost2010PropOp53
 70
     1
102
RTVSPost2010Prop54
  1
strokes_ogs.tif
102
RTVSPost2010PropOp54
 70
     1
102
RTVSPost2010Prop55
280
     0
102
RTVSPost2010PropOp55
 70
     1
102
RTVSPost2010Prop56
140
1.0
102
RTVSPost2010PropOp56
 70
     1
102
RTVSPost2010Prop57
140
1.0
102
RTVSPost2010PropOp57
 70
     1
102
RTVSPropertyOp0
 70
     1
102
RTVSPropertyOp1
 70
     1
102
RTVSPropertyOp2
 70
     1
102
RTVSPropertyOp3
 70
     1
102
RTVSPropertyOp4
 70
     1
102
RTVSPropertyOp5
 70
     1
102
RTVSPropertyOp6
 70
     1
102
RTVSPropertyOp7
 70
     1
102
RTVSPropertyOp8
 70
     1
102
RTVSPropertyOp9
 70
     1
102
RTVSPropertyOp10
 70
     1
102
RTVSPropertyOp11
 70
     1
102
RTVSPropertyOp12
 70
     1
102
RTVSPropertyOp13
 70
     1
102
RTVSPropertyOp14
 70
     1
102
RTVSPropertyOp15
 70
     1
102
RTVSPropertyOp16
 70
     1
102
RTVSPropertyOp17
 70
     1
102
RTVSPropertyOp18
 70
     1
102
RTVSPropertyOp19
 70
     1
102
RTVSPropertyOp20
 70
     1
102
RTVSPropertyOp21
 70
     1
102
RTVSPropertyOp22
 70
     1
102
RTVSPropertyOp23
 70
     1
102
RTVSPropertyOp24
 70
     1
102
RTVSPropertyOp25
 70
     1
102
RTVSPropertyOp26
 70
     1
102
RTVSPropertyOp27
 70
     1
102
RTVSPropertyOp28
 70
     1
102
RTVSPropertyOp29
 70
     1
102
RTVSPropertyOp30
 70
     1
102
RTVSPropertyOp31
 70
     1
102
RTVSPropertyOp32
 70
     1
102
RTVSPropertyOp33
 70
     1
102
RTVSPropertyOp34
 70
     1
102
RTVSPropertyOp35
 70
     1
102
RTVSPropertyOp36
 70
     1
102
RTVSPropertyOp37
 70
     1
102
RTVSPropertyOp38
 70
     1
102
RTVSPropertyOp39
 70
     1
102
RTVSPropertyOp40
 70
     1
102
RTVSPropertyOp41
 70
     1
102
RTVSPropertyOp42
 70
     1
102
RTVSPropertyOp43
 70
     1
102
RTVSPropertyOp44
 70
     1
102
RTVSPropertyOp45
 70
     1
102
RTVSPropertyOp46
 70
     1
102
RTVSPropertyOp47
 70
     1
102
RTVSPropertyOp48
 70
     1
102
RTVSPropertyOp49
 70
     1
102
RTVSPropertyOp50
 70
     1
102
RTVSPropertyOp51
 70
     0
102
RTVSPropertyOp52
 70
     0
102
RTVSPropertyOp53
 70
     1
102
RTVSPropertyOp54
 70
     1
102
RTVSPropertyOp55
 70
     1
102
RTVSPropertyOp56
 70
     1
102
RTVSPropertyOp57
 70
     1
102
RTVSPropertyOp58
 70
     1
102
RTVSPropertyOp59
 70
     1
102
RTVSPropertyOp60
 70
     1
102
RTVSPropertyOp61
 70
     1
102
RTVSPropertyOp62
 70
     1
  0
XRECORD
  5
4E3
102
{ACAD_REACTORS
330
4E2
102
}
330
4E2
100
AcDbXrecord
280
     1
102
RTVSPost2010Prop28
280
     0
102
RTVSPost2010PropOp28
 70
     1
102
RTVSPost2010Prop29
280
     1
102
RTVSPost2010PropOp29
 70
     1
102
RTVSPost2010Prop30
280
     1
102
RTVSPost2010PropOp30
 70
     1
102
RTVSPost2010Prop31
280
     0
102
RTVSPost2010PropOp31
 70
     1
102
RTVSPost2010Prop32
280
     0
102
RTVSPost2010PropOp32
 70
     1
102
RTVSPost2010Prop33
280
     0
102
RTVSPost2010PropOp33
 70
     1
102
RTVSPost2010Prop34
280
     0
102
RTVSPost2010PropOp34
 70
     1
102
RTVSPost2010Prop35
280
     0
102
RTVSPost2010PropOp35
 70
     1
102
RTVSPost2010Prop36
280
     0
102
RTVSPost2010PropOp36
 70
     1
102
RTVSPost2010Prop37
 90
       50
102
RTVSPost2010PropOp37
 70
     0
102
RTVSPost2010Prop38
140
0.0
102
RTVSPost2010PropOp38
 70
     0
102
RTVSPost2010Prop39
140
1.0
102
RTVSPost2010PropOp39
 70
     0
102
RTVSPost2010Prop40
 90
        0
102
RTVSPost2010PropOp40
 70
     0
102
RTVSPost2010Prop41ColorIndex
 90
       18
102
RTVSPost2010Prop41ColorRGB
 90
        0
102
RTVSPost2010PropOp41
 70
     0
102
RTVSPost2010Prop42
 90
       50
102
RTVSPost2010PropOp42
 70
     0
102
RTVSPost2010Prop43
 90
        3
102
RTVSPost2010PropOp43
 70
     0
102
RTVSPost2010Prop44ColorIndex
 90
        5
102
RTVSPost2010Prop44ColorRGB
 90
      255
102
RTVSPost2010PropOp44
 70
     0
102
RTVSPost2010Prop45
280
     0
102
RTVSPost2010PropOp45
 70
     1
102
RTVSPost2010Prop46
 90
       50
102
RTVSPost2010PropOp46
 70
     0
102
RTVSPost2010Prop47
 90
       50
102
RTVSPost2010PropOp47
 70
     0
102
RTVSPost2010Prop48
 90
       50
102
RTVSPost2010PropOp48
 70
     0
102
RTVSPost2010Prop49
280
     0
102
RTVSPost2010PropOp49
 70
     1
102
RTVSPost2010Prop50
 90
       50
102
RTVSPost2010PropOp50
 70
     0
102
RTVSPost2010Prop51ColorIndex
 90
      256
102
RTVSPost2010Prop51ColorRGB
 90
-16777216
102
RTVSPost2010PropOp51
 70
     0
102
RTVSPost2010Prop52
140
1.0
102
RTVSPost2010PropOp52
 70
     0
102
RTVSPost2010Prop53
 90
        2
102
RTVSPost2010PropOp53
 70
     0
102
RTVSPost2010Prop54
  1
strokes_ogs.tif
102
RTVSPost2010PropOp54
 70
     0
102
RTVSPost2010Prop55
280
     0
102
RTVSPost2010PropOp55
 70
     1
102
RTVSPost2010Prop56
140
1.0
102
RTVSPost2010PropOp56
 70
     0
102
RTVSPost2010Prop57
140
1.0
102
RTVSPost2010PropOp57
 70
     0
102
RTVSPropertyOp0
 70
     0
102
RTVSPropertyOp1
 70
     0
102
RTVSPropertyOp2
 70
     0
102
RTVSPropertyOp3
 70
     0
102
RTVSPropertyOp4
 70
     0
102
RTVSPropertyOp5
 70
     0
102
RTVSPropertyOp6
 70
     0
102
RTVSPropertyOp7
 70
     0
102
RTVSPropertyOp8
 70
     0
102
RTVSPropertyOp9
 70
     0
102
RTVSPropertyOp10
 70
     0
102
RTVSPropertyOp11
 70
     0
102
RTVSPropertyOp12
 70
     0
102
RTVSPropertyOp13
 70
     0
102
RTVSPropertyOp14
 70
     2
102
RTVSPropertyOp15
 70
     0
102
RTVSPropertyOp16
 70
     0
102
RTVSPropertyOp17
 70
     0
102
RTVSPropertyOp18
 70
     0
102
RTVSPropertyOp19
 70
     0
102
RTVSPropertyOp20
 70
     0
102
RTVSPropertyOp21
 70
     0
102
RTVSPropertyOp22
 70
     0
102
RTVSPropertyOp23
 70
     0
102
RTVSPropertyOp24
 70
     0
102
RTVSPropertyOp25
 70
     0
102
RTVSPropertyOp26
 70
     0
102
RTVSPropertyOp27
 70
     0
102
RTVSPropertyOp28
 70
     1
102
RTVSPropertyOp29
 70
     1
102
RTVSPropertyOp30
 70
     1
102
RTVSPropertyOp31
 70
     1
102
RTVSPropertyOp32
 70
     1
102
RTVSPropertyOp33
 70
     1
102
RTVSPropertyOp34
 70
     1
102
RTVSPropertyOp35
 70
     1
102
RTVSPropertyOp36
 70
     1
102
RTVSPropertyOp37
 70
     0
102
RTVSPropertyOp38
 70
     0
102
RTVSPropertyOp39
 70
     0
102
RTVSPropertyOp40
 70
     0
102
RTVSPropertyOp41
 70
     0
102
RTVSPropertyOp42
 70
     0
102
RTVSPropertyOp43
 70
     0
102
RTVSPropertyOp44
 70
     0
102
RTVSPropertyOp45
 70
     1
102
RTVSPropertyOp46
 70
     0
102
RTVSPropertyOp47
 70
     0
102
RTVSPropertyOp48
 70
     0
102
RTVSPropertyOp49
 70
     1
102
RTVSPropertyOp50
 70
     0
102
RTVSPropertyOp51
 70
     0
102
RTVSPropertyOp52
 70
     0
102
RTVSPropertyOp53
 70
     0
102
RTVSPropertyOp54
 70
     0
102
RTVSPropertyOp55
 70
     1
102
RTVSPropertyOp56
 70
     0
102
RTVSPropertyOp57
 70
     0
102
RTVSPropertyOp58
 70
     0
102
RTVSPropertyOp59
 70
     0
102
RTVSPropertyOp60
 70
     0
102
RTVSPropertyOp61
 70
     0
102
RTVSPropertyOp62
 70
     0
  0
XRECORD
  5
4C9
102
{ACAD_REACTORS
330
4C8
102
}
330
4C8
100
AcDbXrecord
280
     1
102
RTVSPost2010Prop28
280
     0
102
RTVSPost2010PropOp28
 70
     1
102
RTVSPost2010Prop29
280
     1
102
RTVSPost2010PropOp29
 70
     1
102
RTVSPost2010Prop30
280
     1
102
RTVSPost2010PropOp30
 70
     1
102
RTVSPost2010Prop31
280
     0
102
RTVSPost2010PropOp31
 70
     1
102
RTVSPost2010Prop32
280
     0
102
RTVSPost2010PropOp32
 70
     1
102
RTVSPost2010Prop33
280
     0
102
RTVSPost2010PropOp33
 70
     1
102
RTVSPost2010Prop34
280
     0
102
RTVSPost2010PropOp34
 70
     1
102
RTVSPost2010Prop35
280
     0
102
RTVSPost2010PropOp35
 70
     1
102
RTVSPost2010Prop36
280
     0
102
RTVSPost2010PropOp36
 70
     1
102
RTVSPost2010Prop37
 90
       50
102
RTVSPost2010PropOp37
 70
     1
102
RTVSPost2010Prop38
140
0.0
102
RTVSPost2010PropOp38
 70
     1
102
RTVSPost2010Prop39
140
1.0
102
RTVSPost2010PropOp39
 70
     1
102
RTVSPost2010Prop40
 90
        0
102
RTVSPost2010PropOp40
 70
     1
102
RTVSPost2010Prop41ColorIndex
 90
       18
102
RTVSPost2010Prop41ColorRGB
 90
        0
102
RTVSPost2010PropOp41
 70
     1
102
RTVSPost2010Prop42
 90
       50
102
RTVSPost2010PropOp42
 70
     1
102
RTVSPost2010Prop43
 90
        3
102
RTVSPost2010PropOp43
 70
     1
102
RTVSPost2010Prop44ColorIndex
 90
        5
102
RTVSPost2010Prop44ColorRGB
 90
      255
102
RTVSPost2010PropOp44
 70
     1
102
RTVSPost2010Prop45
280
     0
102
RTVSPost2010PropOp45
 70
     1
102
RTVSPost2010Prop46
 90
       50
102
RTVSPost2010PropOp46
 70
     1
102
RTVSPost2010Prop47
 90
       50
102
RTVSPost2010PropOp47
 70
     1
102
RTVSPost2010Prop48
 90
       50
102
RTVSPost2010PropOp48
 70
     1
102
RTVSPost2010Prop49
280
     0
102
RTVSPost2010PropOp49
 70
     1
102
RTVSPost2010Prop50
 90
       50
102
RTVSPost2010PropOp50
 70
     1
102
RTVSPost2010Prop51ColorIndex
 90
      256
102
RTVSPost2010Prop51ColorRGB
 90
-16777216
102
RTVSPost2010PropOp51
 70
     0
102
RTVSPost2010Prop52
140
1.0
102
RTVSPost2010PropOp52
 70
     0
102
RTVSPost2010Prop53
 90
        2
102
RTVSPost2010PropOp53
 70
     1
102
RTVSPost2010Prop54
  1
strokes_ogs.tif
102
RTVSPost2010PropOp54
 70
     1
102
RTVSPost2010Prop55
280
     0
102
RTVSPost2010PropOp55
 70
     1
102
RTVSPost2010Prop56
140
1.0
102
RTVSPost2010PropOp56
 70
     1
102
RTVSPost2010Prop57
140
1.0
102
RTVSPost2010PropOp57
 70
     1
102
RTVSPropertyOp0
 70
     1
102
RTVSPropertyOp1
 70
     1
102
RTVSPropertyOp2
 70
     1
102
RTVSPropertyOp3
 70
     1
102
RTVSPropertyOp4
 70
     1
102
RTVSPropertyOp5
 70
     1
102
RTVSPropertyOp6
 70
     1
102
RTVSPropertyOp7
 70
     1
102
RTVSPropertyOp8
 70
     1
102
RTVSPropertyOp9
 70
     1
102
RTVSPropertyOp10
 70
     1
102
RTVSPropertyOp11
 70
     1
102
RTVSPropertyOp12
 70
     1
102
RTVSPropertyOp13
 70
     1
102
RTVSPropertyOp14
 70
     1
102
RTVSPropertyOp15
 70
     1
102
RTVSPropertyOp16
 70
     1
102
RTVSPropertyOp17
 70
     1
102
RTVSPropertyOp18
 70
     1
102
RTVSPropertyOp19
 70
     1
102
RTVSPropertyOp20
 70
     1
102
RTVSPropertyOp21
 70
     1
102
RTVSPropertyOp22
 70
     1
102
RTVSPropertyOp23
 70
     1
102
RTVSPropertyOp24
 70
     1
102
RTVSPropertyOp25
 70
     1
102
RTVSPropertyOp26
 70
     1
102
RTVSPropertyOp27
 70
     1
102
RTVSPropertyOp28
 70
     1
102
RTVSPropertyOp29
 70
     1
102
RTVSPropertyOp30
 70
     1
102
RTVSPropertyOp31
 70
     1
102
RTVSPropertyOp32
 70
     1
102
RTVSPropertyOp33
 70
     1
102
RTVSPropertyOp34
 70
     1
102
RTVSPropertyOp35
 70
     1
102
RTVSPropertyOp36
 70
     1
102
RTVSPropertyOp37
 70
     1
102
RTVSPropertyOp38
 70
     1
102
RTVSPropertyOp39
 70
     1
102
RTVSPropertyOp40
 70
     1
102
RTVSPropertyOp41
 70
     1
102
RTVSPropertyOp42
 70
     1
102
RTVSPropertyOp43
 70
     1
102
RTVSPropertyOp44
 70
     1
102
RTVSPropertyOp45
 70
     1
102
RTVSPropertyOp46
 70
     1
102
RTVSPropertyOp47
 70
     1
102
RTVSPropertyOp48
 70
     1
102
RTVSPropertyOp49
 70
     1
102
RTVSPropertyOp50
 70
     1
102
RTVSPropertyOp51
 70
     0
102
RTVSPropertyOp52
 70
     0
102
RTVSPropertyOp53
 70
     1
102
RTVSPropertyOp54
 70
     1
102
RTVSPropertyOp55
 70
     1
102
RTVSPropertyOp56
 70
     1
102
RTVSPropertyOp57
 70
     1
102
RTVSPropertyOp58
 70
     1
102
RTVSPropertyOp59
 70
     1
102
RTVSPropertyOp60
 70
     1
102
RTVSPropertyOp61
 70
     1
102
RTVSPropertyOp62
 70
     1
  0
XRECORD
  5
4DF
102
{ACAD_REACTORS
330
4DE
102
}
330
4DE
100
AcDbXrecord
280
     1
102
RTVSPost2010Prop28
280
     0
102
RTVSPost2010PropOp28
 70
     1
102
RTVSPost2010Prop29
280
     1
102
RTVSPost2010PropOp29
 70
     1
102
RTVSPost2010Prop30
280
     1
102
RTVSPost2010PropOp30
 70
     1
102
RTVSPost2010Prop31
280
     0
102
RTVSPost2010PropOp31
 70
     1
102
RTVSPost2010Prop32
280
     0
102
RTVSPost2010PropOp32
 70
     1
102
RTVSPost2010Prop33
280
     0
102
RTVSPost2010PropOp33
 70
     1
102
RTVSPost2010Prop34
280
     0
102
RTVSPost2010PropOp34
 70
     1
102
RTVSPost2010Prop35
280
     0
102
RTVSPost2010PropOp35
 70
     1
102
RTVSPost2010Prop36
280
     0
102
RTVSPost2010PropOp36
 70
     1
102
RTVSPost2010Prop37
 90
       50
102
RTVSPost2010PropOp37
 70
     1
102
RTVSPost2010Prop38
140
0.0
102
RTVSPost2010PropOp38
 70
     1
102
RTVSPost2010Prop39
140
1.0
102
RTVSPost2010PropOp39
 70
     1
102
RTVSPost2010Prop40
 90
        0
102
RTVSPost2010PropOp40
 70
     1
102
RTVSPost2010Prop41ColorIndex
 90
       18
102
RTVSPost2010Prop41ColorRGB
 90
        0
102
RTVSPost2010PropOp41
 70
     1
102
RTVSPost2010Prop42
 90
       50
102
RTVSPost2010PropOp42
 70
     1
102
RTVSPost2010Prop43
 90
        3
102
RTVSPost2010PropOp43
 70
     1
102
RTVSPost2010Prop44ColorIndex
 90
        5
102
RTVSPost2010Prop44ColorRGB
 90
      255
102
RTVSPost2010PropOp44
 70
     1
102
RTVSPost2010Prop45
280
     0
102
RTVSPost2010PropOp45
 70
     1
102
RTVSPost2010Prop46
 90
       50
102
RTVSPost2010PropOp46
 70
     1
102
RTVSPost2010Prop47
 90
       50
102
RTVSPost2010PropOp47
 70
     1
102
RTVSPost2010Prop48
 90
       50
102
RTVSPost2010PropOp48
 70
     1
102
RTVSPost2010Prop49
280
     0
102
RTVSPost2010PropOp49
 70
     1
102
RTVSPost2010Prop50
 90
       50
102
RTVSPost2010PropOp50
 70
     1
102
RTVSPost2010Prop51ColorIndex
 90
      256
102
RTVSPost2010Prop51ColorRGB
 90
-16777216
102
RTVSPost2010PropOp51
 70
     0
102
RTVSPost2010Prop52
140
1.0
102
RTVSPost2010PropOp52
 70
     0
102
RTVSPost2010Prop53
 90
        2
102
RTVSPost2010PropOp53
 70
     1
102
RTVSPost2010Prop54
  1
strokes_ogs.tif
102
RTVSPost2010PropOp54
 70
     1
102
RTVSPost2010Prop55
280
     0
102
RTVSPost2010PropOp55
 70
     1
102
RTVSPost2010Prop56
140
1.0
102
RTVSPost2010PropOp56
 70
     1
102
RTVSPost2010Prop57
140
1.0
102
RTVSPost2010PropOp57
 70
     1
102
RTVSPropertyOp0
 70
     1
102
RTVSPropertyOp1
 70
     1
102
RTVSPropertyOp2
 70
     1
102
RTVSPropertyOp3
 70
     1
102
RTVSPropertyOp4
 70
     1
102
RTVSPropertyOp5
 70
     1
102
RTVSPropertyOp6
 70
     1
102
RTVSPropertyOp7
 70
     1
102
RTVSPropertyOp8
 70
     1
102
RTVSPropertyOp9
 70
     1
102
RTVSPropertyOp10
 70
     1
102
RTVSPropertyOp11
 70
     1
102
RTVSPropertyOp12
 70
     1
102
RTVSPropertyOp13
 70
     1
102
RTVSPropertyOp14
 70
     1
102
RTVSPropertyOp15
 70
     1
102
RTVSPropertyOp16
 70
     1
102
RTVSPropertyOp17
 70
     1
102
RTVSPropertyOp18
 70
     1
102
RTVSPropertyOp19
 70
     1
102
RTVSPropertyOp20
 70
     1
102
RTVSPropertyOp21
 70
     1
102
RTVSPropertyOp22
 70
     1
102
RTVSPropertyOp23
 70
     1
102
RTVSPropertyOp24
 70
     1
102
RTVSPropertyOp25
 70
     1
102
RTVSPropertyOp26
 70
     1
102
RTVSPropertyOp27
 70
     1
102
RTVSPropertyOp28
 70
     1
102
RTVSPropertyOp29
 70
     1
102
RTVSPropertyOp30
 70
     1
102
RTVSPropertyOp31
 70
     1
102
RTVSPropertyOp32
 70
     1
102
RTVSPropertyOp33
 70
     1
102
RTVSPropertyOp34
 70
     1
102
RTVSPropertyOp35
 70
     1
102
RTVSPropertyOp36
 70
     1
102
RTVSPropertyOp37
 70
     1
102
RTVSPropertyOp38
 70
     1
102
RTVSPropertyOp39
 70
     1
102
RTVSPropertyOp40
 70
     1
102
RTVSPropertyOp41
 70
     1
102
RTVSPropertyOp42
 70
     1
102
RTVSPropertyOp43
 70
     1
102
RTVSPropertyOp44
 70
     1
102
RTVSPropertyOp45
 70
     1
102
RTVSPropertyOp46
 70
     1
102
RTVSPropertyOp47
 70
     1
102
RTVSPropertyOp48
 70
     1
102
RTVSPropertyOp49
 70
     1
102
RTVSPropertyOp50
 70
     1
102
RTVSPropertyOp51
 70
     0
102
RTVSPropertyOp52
 70
     0
102
RTVSPropertyOp53
 70
     1
102
RTVSPropertyOp54
 70
     1
102
RTVSPropertyOp55
 70
     1
102
RTVSPropertyOp56
 70
     1
102
RTVSPropertyOp57
 70
     1
102
RTVSPropertyOp58
 70
     1
102
RTVSPropertyOp59
 70
     1
102
RTVSPropertyOp60
 70
     1
102
RTVSPropertyOp61
 70
     1
102
RTVSPropertyOp62
 70
     1
  0
XRECORD
  5
4DD
102
{ACAD_REACTORS
330
4DC
102
}
330
4DC
100
AcDbXrecord
280
     1
102
RTVSPost2010Prop28
280
     0
102
RTVSPost2010PropOp28
 70
     1
102
RTVSPost2010Prop29
280
     1
102
RTVSPost2010PropOp29
 70
     1
102
RTVSPost2010Prop30
280
     1
102
RTVSPost2010PropOp30
 70
     1
102
RTVSPost2010Prop31
280
     0
102
RTVSPost2010PropOp31
 70
     1
102
RTVSPost2010Prop32
280
     0
102
RTVSPost2010PropOp32
 70
     1
102
RTVSPost2010Prop33
280
     0
102
RTVSPost2010PropOp33
 70
     1
102
RTVSPost2010Prop34
280
     0
102
RTVSPost2010PropOp34
 70
     1
102
RTVSPost2010Prop35
280
     0
102
RTVSPost2010PropOp35
 70
     1
102
RTVSPost2010Prop36
280
     0
102
RTVSPost2010PropOp36
 70
     1
102
RTVSPost2010Prop37
 90
       50
102
RTVSPost2010PropOp37
 70
     1
102
RTVSPost2010Prop38
140
0.0
102
RTVSPost2010PropOp38
 70
     1
102
RTVSPost2010Prop39
140
1.0
102
RTVSPost2010PropOp39
 70
     1
102
RTVSPost2010Prop40
 90
        0
102
RTVSPost2010PropOp40
 70
     1
102
RTVSPost2010Prop41ColorIndex
 90
       18
102
RTVSPost2010Prop41ColorRGB
 90
        0
102
RTVSPost2010PropOp41
 70
     1
102
RTVSPost2010Prop42
 90
       50
102
RTVSPost2010PropOp42
 70
     1
102
RTVSPost2010Prop43
 90
        3
102
RTVSPost2010PropOp43
 70
     1
102
RTVSPost2010Prop44ColorIndex
 90
        5
102
RTVSPost2010Prop44ColorRGB
 90
      255
102
RTVSPost2010PropOp44
 70
     1
102
RTVSPost2010Prop45
280
     0
102
RTVSPost2010PropOp45
 70
     1
102
RTVSPost2010Prop46
 90
       50
102
RTVSPost2010PropOp46
 70
     1
102
RTVSPost2010Prop47
 90
       50
102
RTVSPost2010PropOp47
 70
     1
102
RTVSPost2010Prop48
 90
       50
102
RTVSPost2010PropOp48
 70
     1
102
RTVSPost2010Prop49
280
     0
102
RTVSPost2010PropOp49
 70
     1
102
RTVSPost2010Prop50
 90
       50
102
RTVSPost2010PropOp50
 70
     1
102
RTVSPost2010Prop51ColorIndex
 90
      256
102
RTVSPost2010Prop51ColorRGB
 90
-16777216
102
RTVSPost2010PropOp51
 70
     0
102
RTVSPost2010Prop52
140
1.0
102
RTVSPost2010PropOp52
 70
     0
102
RTVSPost2010Prop53
 90
        2
102
RTVSPost2010PropOp53
 70
     1
102
RTVSPost2010Prop54
  1
strokes_ogs.tif
102
RTVSPost2010PropOp54
 70
     1
102
RTVSPost2010Prop55
280
     0
102
RTVSPost2010PropOp55
 70
     1
102
RTVSPost2010Prop56
140
1.0
102
RTVSPost2010PropOp56
 70
     1
102
RTVSPost2010Prop57
140
1.0
102
RTVSPost2010PropOp57
 70
     1
102
RTVSPropertyOp0
 70
     1
102
RTVSPropertyOp1
 70
     1
102
RTVSPropertyOp2
 70
     1
102
RTVSPropertyOp3
 70
     1
102
RTVSPropertyOp4
 70
     1
102
RTVSPropertyOp5
 70
     1
102
RTVSPropertyOp6
 70
     1
102
RTVSPropertyOp7
 70
     1
102
RTVSPropertyOp8
 70
     1
102
RTVSPropertyOp9
 70
     1
102
RTVSPropertyOp10
 70
     1
102
RTVSPropertyOp11
 70
     1
102
RTVSPropertyOp12
 70
     1
102
RTVSPropertyOp13
 70
     1
102
RTVSPropertyOp14
 70
     1
102
RTVSPropertyOp15
 70
     1
102
RTVSPropertyOp16
 70
     1
102
RTVSPropertyOp17
 70
     1
102
RTVSPropertyOp18
 70
     1
102
RTVSPropertyOp19
 70
     1
102
RTVSPropertyOp20
 70
     1
102
RTVSPropertyOp21
 70
     1
102
RTVSPropertyOp22
 70
     1
102
RTVSPropertyOp23
 70
     1
102
RTVSPropertyOp24
 70
     1
102
RTVSPropertyOp25
 70
     1
102
RTVSPropertyOp26
 70
     1
102
RTVSPropertyOp27
 70
     1
102
RTVSPropertyOp28
 70
     1
102
RTVSPropertyOp29
 70
     1
102
RTVSPropertyOp30
 70
     1
102
RTVSPropertyOp31
 70
     1
102
RTVSPropertyOp32
 70
     1
102
RTVSPropertyOp33
 70
     1
102
RTVSPropertyOp34
 70
     1
102
RTVSPropertyOp35
 70
     1
102
RTVSPropertyOp36
 70
     1
102
RTVSPropertyOp37
 70
     1
102
RTVSPropertyOp38
 70
     1
102
RTVSPropertyOp39
 70
     1
102
RTVSPropertyOp40
 70
     1
102
RTVSPropertyOp41
 70
     1
102
RTVSPropertyOp42
 70
     1
102
RTVSPropertyOp43
 70
     1
102
RTVSPropertyOp44
 70
     1
102
RTVSPropertyOp45
 70
     1
102
RTVSPropertyOp46
 70
     1
102
RTVSPropertyOp47
 70
     1
102
RTVSPropertyOp48
 70
     1
102
RTVSPropertyOp49
 70
     1
102
RTVSPropertyOp50
 70
     1
102
RTVSPropertyOp51
 70
     0
102
RTVSPropertyOp52
 70
     0
102
RTVSPropertyOp53
 70
     1
102
RTVSPropertyOp54
 70
     1
102
RTVSPropertyOp55
 70
     1
102
RTVSPropertyOp56
 70
     1
102
RTVSPropertyOp57
 70
     1
102
RTVSPropertyOp58
 70
     1
102
RTVSPropertyOp59
 70
     1
102
RTVSPropertyOp60
 70
     1
102
RTVSPropertyOp61
 70
     1
102
RTVSPropertyOp62
 70
     1
  0
XRECORD
  5
4D7
102
{ACAD_REACTORS
330
4D6
102
}
330
4D6
100
AcDbXrecord
280
     1
102
RTVSPost2010Prop28
280
     0
102
RTVSPost2010PropOp28
 70
     1
102
RTVSPost2010Prop29
280
     1
102
RTVSPost2010PropOp29
 70
     1
102
RTVSPost2010Prop30
280
     1
102
RTVSPost2010PropOp30
 70
     1
102
RTVSPost2010Prop31
280
     0
102
RTVSPost2010PropOp31
 70
     1
102
RTVSPost2010Prop32
280
     0
102
RTVSPost2010PropOp32
 70
     1
102
RTVSPost2010Prop33
280
     0
102
RTVSPost2010PropOp33
 70
     1
102
RTVSPost2010Prop34
280
     0
102
RTVSPost2010PropOp34
 70
     1
102
RTVSPost2010Prop35
280
     0
102
RTVSPost2010PropOp35
 70
     1
102
RTVSPost2010Prop36
280
     0
102
RTVSPost2010PropOp36
 70
     1
102
RTVSPost2010Prop37
 90
       50
102
RTVSPost2010PropOp37
 70
     1
102
RTVSPost2010Prop38
140
0.0
102
RTVSPost2010PropOp38
 70
     1
102
RTVSPost2010Prop39
140
1.0
102
RTVSPost2010PropOp39
 70
     1
102
RTVSPost2010Prop40
 90
        0
102
RTVSPost2010PropOp40
 70
     1
102
RTVSPost2010Prop41ColorIndex
 90
       18
102
RTVSPost2010Prop41ColorRGB
 90
        0
102
RTVSPost2010PropOp41
 70
     1
102
RTVSPost2010Prop42
 90
       50
102
RTVSPost2010PropOp42
 70
     1
102
RTVSPost2010Prop43
 90
        3
102
RTVSPost2010PropOp43
 70
     1
102
RTVSPost2010Prop44ColorIndex
 90
        5
102
RTVSPost2010Prop44ColorRGB
 90
      255
102
RTVSPost2010PropOp44
 70
     1
102
RTVSPost2010Prop45
280
     0
102
RTVSPost2010PropOp45
 70
     1
102
RTVSPost2010Prop46
 90
       50
102
RTVSPost2010PropOp46
 70
     1
102
RTVSPost2010Prop47
 90
       50
102
RTVSPost2010PropOp47
 70
     1
102
RTVSPost2010Prop48
 90
       50
102
RTVSPost2010PropOp48
 70
     1
102
RTVSPost2010Prop49
280
     0
102
RTVSPost2010PropOp49
 70
     1
102
RTVSPost2010Prop50
 90
       50
102
RTVSPost2010PropOp50
 70
     1
102
RTVSPost2010Prop51ColorIndex
 90
      256
102
RTVSPost2010Prop51ColorRGB
 90
-16777216
102
RTVSPost2010PropOp51
 70
     0
102
RTVSPost2010Prop52
140
1.0
102
RTVSPost2010PropOp52
 70
     0
102
RTVSPost2010Prop53
 90
        2
102
RTVSPost2010PropOp53
 70
     1
102
RTVSPost2010Prop54
  1
strokes_ogs.tif
102
RTVSPost2010PropOp54
 70
     1
102
RTVSPost2010Prop55
280
     0
102
RTVSPost2010PropOp55
 70
     1
102
RTVSPost2010Prop56
140
1.0
102
RTVSPost2010PropOp56
 70
     1
102
RTVSPost2010Prop57
140
1.0
102
RTVSPost2010PropOp57
 70
     1
102
RTVSPropertyOp0
 70
     1
102
RTVSPropertyOp1
 70
     1
102
RTVSPropertyOp2
 70
     1
102
RTVSPropertyOp3
 70
     1
102
RTVSPropertyOp4
 70
     1
102
RTVSPropertyOp5
 70
     1
102
RTVSPropertyOp6
 70
     1
102
RTVSPropertyOp7
 70
     1
102
RTVSPropertyOp8
 70
     1
102
RTVSPropertyOp9
 70
     1
102
RTVSPropertyOp10
 70
     1
102
RTVSPropertyOp11
 70
     1
102
RTVSPropertyOp12
 70
     1
102
RTVSPropertyOp13
 70
     1
102
RTVSPropertyOp14
 70
     1
102
RTVSPropertyOp15
 70
     1
102
RTVSPropertyOp16
 70
     1
102
RTVSPropertyOp17
 70
     1
102
RTVSPropertyOp18
 70
     1
102
RTVSPropertyOp19
 70
     1
102
RTVSPropertyOp20
 70
     1
102
RTVSPropertyOp21
 70
     1
102
RTVSPropertyOp22
 70
     1
102
RTVSPropertyOp23
 70
     1
102
RTVSPropertyOp24
 70
     1
102
RTVSPropertyOp25
 70
     1
102
RTVSPropertyOp26
 70
     1
102
RTVSPropertyOp27
 70
     1
102
RTVSPropertyOp28
 70
     1
102
RTVSPropertyOp29
 70
     1
102
RTVSPropertyOp30
 70
     1
102
RTVSPropertyOp31
 70
     1
102
RTVSPropertyOp32
 70
     1
102
RTVSPropertyOp33
 70
     1
102
RTVSPropertyOp34
 70
     1
102
RTVSPropertyOp35
 70
     1
102
RTVSPropertyOp36
 70
     1
102
RTVSPropertyOp37
 70
     1
102
RTVSPropertyOp38
 70
     1
102
RTVSPropertyOp39
 70
     1
102
RTVSPropertyOp40
 70
     1
102
RTVSPropertyOp41
 70
     1
102
RTVSPropertyOp42
 70
     1
102
RTVSPropertyOp43
 70
     1
102
RTVSPropertyOp44
 70
     1
102
RTVSPropertyOp45
 70
     1
102
RTVSPropertyOp46
 70
     1
102
RTVSPropertyOp47
 70
     1
102
RTVSPropertyOp48
 70
     1
102
RTVSPropertyOp49
 70
     1
102
RTVSPropertyOp50
 70
     1
102
RTVSPropertyOp51
 70
     0
102
RTVSPropertyOp52
 70
     0
102
RTVSPropertyOp53
 70
     1
102
RTVSPropertyOp54
 70
     1
102
RTVSPropertyOp55
 70
     1
102
RTVSPropertyOp56
 70
     1
102
RTVSPropertyOp57
 70
     1
102
RTVSPropertyOp58
 70
     1
102
RTVSPropertyOp59
 70
     1
102
RTVSPropertyOp60
 70
     1
102
RTVSPropertyOp61
 70
     1
102
RTVSPropertyOp62
 70
     1
  0
XRECORD
  5
4D9
102
{ACAD_REACTORS
330
4D8
102
}
330
4D8
100
AcDbXrecord
280
     1
102
RTVSPost2010Prop28
280
     0
102
RTVSPost2010PropOp28
 70
     1
102
RTVSPost2010Prop29
280
     1
102
RTVSPost2010PropOp29
 70
     1
102
RTVSPost2010Prop30
280
     1
102
RTVSPost2010PropOp30
 70
     1
102
RTVSPost2010Prop31
280
     0
102
RTVSPost2010PropOp31
 70
     1
102
RTVSPost2010Prop32
280
     0
102
RTVSPost2010PropOp32
 70
     1
102
RTVSPost2010Prop33
280
     0
102
RTVSPost2010PropOp33
 70
     1
102
RTVSPost2010Prop34
280
     0
102
RTVSPost2010PropOp34
 70
     1
102
RTVSPost2010Prop35
280
     0
102
RTVSPost2010PropOp35
 70
     1
102
RTVSPost2010Prop36
280
     0
102
RTVSPost2010PropOp36
 70
     1
102
RTVSPost2010Prop37
 90
       50
102
RTVSPost2010PropOp37
 70
     1
102
RTVSPost2010Prop38
140
0.0
102
RTVSPost2010PropOp38
 70
     1
102
RTVSPost2010Prop39
140
1.0
102
RTVSPost2010PropOp39
 70
     1
102
RTVSPost2010Prop40
 90
        0
102
RTVSPost2010PropOp40
 70
     1
102
RTVSPost2010Prop41ColorIndex
 90
       18
102
RTVSPost2010Prop41ColorRGB
 90
        0
102
RTVSPost2010PropOp41
 70
     1
102
RTVSPost2010Prop42
 90
       50
102
RTVSPost2010PropOp42
 70
     1
102
RTVSPost2010Prop43
 90
        3
102
RTVSPost2010PropOp43
 70
     1
102
RTVSPost2010Prop44ColorIndex
 90
        5
102
RTVSPost2010Prop44ColorRGB
 90
      255
102
RTVSPost2010PropOp44
 70
     1
102
RTVSPost2010Prop45
280
     0
102
RTVSPost2010PropOp45
 70
     1
102
RTVSPost2010Prop46
 90
       50
102
RTVSPost2010PropOp46
 70
     1
102
RTVSPost2010Prop47
 90
       50
102
RTVSPost2010PropOp47
 70
     1
102
RTVSPost2010Prop48
 90
       50
102
RTVSPost2010PropOp48
 70
     1
102
RTVSPost2010Prop49
280
     0
102
RTVSPost2010PropOp49
 70
     1
102
RTVSPost2010Prop50
 90
       50
102
RTVSPost2010PropOp50
 70
     1
102
RTVSPost2010Prop51ColorIndex
 90
      256
102
RTVSPost2010Prop51ColorRGB
 90
-16777216
102
RTVSPost2010PropOp51
 70
     0
102
RTVSPost2010Prop52
140
1.0
102
RTVSPost2010PropOp52
 70
     0
102
RTVSPost2010Prop53
 90
        2
102
RTVSPost2010PropOp53
 70
     1
102
RTVSPost2010Prop54
  1
strokes_ogs.tif
102
RTVSPost2010PropOp54
 70
     1
102
RTVSPost2010Prop55
280
     0
102
RTVSPost2010PropOp55
 70
     1
102
RTVSPost2010Prop56
140
1.0
102
RTVSPost2010PropOp56
 70
     1
102
RTVSPost2010Prop57
140
1.0
102
RTVSPost2010PropOp57
 70
     1
102
RTVSPropertyOp0
 70
     1
102
RTVSPropertyOp1
 70
     1
102
RTVSPropertyOp2
 70
     1
102
RTVSPropertyOp3
 70
     1
102
RTVSPropertyOp4
 70
     1
102
RTVSPropertyOp5
 70
     1
102
RTVSPropertyOp6
 70
     1
102
RTVSPropertyOp7
 70
     1
102
RTVSPropertyOp8
 70
     1
102
RTVSPropertyOp9
 70
     1
102
RTVSPropertyOp10
 70
     1
102
RTVSPropertyOp11
 70
     1
102
RTVSPropertyOp12
 70
     1
102
RTVSPropertyOp13
 70
     1
102
RTVSPropertyOp14
 70
     1
102
RTVSPropertyOp15
 70
     1
102
RTVSPropertyOp16
 70
     1
102
RTVSPropertyOp17
 70
     1
102
RTVSPropertyOp18
 70
     1
102
RTVSPropertyOp19
 70
     1
102
RTVSPropertyOp20
 70
     1
102
RTVSPropertyOp21
 70
     1
102
RTVSPropertyOp22
 70
     1
102
RTVSPropertyOp23
 70
     1
102
RTVSPropertyOp24
 70
     1
102
RTVSPropertyOp25
 70
     1
102
RTVSPropertyOp26
 70
     1
102
RTVSPropertyOp27
 70
     1
102
RTVSPropertyOp28
 70
     1
102
RTVSPropertyOp29
 70
     1
102
RTVSPropertyOp30
 70
     1
102
RTVSPropertyOp31
 70
     1
102
RTVSPropertyOp32
 70
     1
102
RTVSPropertyOp33
 70
     1
102
RTVSPropertyOp34
 70
     1
102
RTVSPropertyOp35
 70
     1
102
RTVSPropertyOp36
 70
     1
102
RTVSPropertyOp37
 70
     1
102
RTVSPropertyOp38
 70
     1
102
RTVSPropertyOp39
 70
     1
102
RTVSPropertyOp40
 70
     1
102
RTVSPropertyOp41
 70
     1
102
RTVSPropertyOp42
 70
     1
102
RTVSPropertyOp43
 70
     1
102
RTVSPropertyOp44
 70
     1
102
RTVSPropertyOp45
 70
     1
102
RTVSPropertyOp46
 70
     1
102
RTVSPropertyOp47
 70
     1
102
RTVSPropertyOp48
 70
     1
102
RTVSPropertyOp49
 70
     1
102
RTVSPropertyOp50
 70
     1
102
RTVSPropertyOp51
 70
     0
102
RTVSPropertyOp52
 70
     0
102
RTVSPropertyOp53
 70
     1
102
RTVSPropertyOp54
 70
     1
102
RTVSPropertyOp55
 70
     1
102
RTVSPropertyOp56
 70
     1
102
RTVSPropertyOp57
 70
     1
102
RTVSPropertyOp58
 70
     1
102
RTVSPropertyOp59
 70
     1
102
RTVSPropertyOp60
 70
     1
102
RTVSPropertyOp61
 70
     1
102
RTVSPropertyOp62
 70
     1
  0
XRECORD
  5
4CF
102
{ACAD_REACTORS
330
4CE
102
}
330
4CE
100
AcDbXrecord
280
     1
102
RTVSPost2010Prop28
280
     0
102
RTVSPost2010PropOp28
 70
     1
102
RTVSPost2010Prop29
280
     1
102
RTVSPost2010PropOp29
 70
     1
102
RTVSPost2010Prop30
280
     1
102
RTVSPost2010PropOp30
 70
     1
102
RTVSPost2010Prop31
280
     0
102
RTVSPost2010PropOp31
 70
     1
102
RTVSPost2010Prop32
280
     0
102
RTVSPost2010PropOp32
 70
     1
102
RTVSPost2010Prop33
280
     0
102
RTVSPost2010PropOp33
 70
     1
102
RTVSPost2010Prop34
280
     0
102
RTVSPost2010PropOp34
 70
     1
102
RTVSPost2010Prop35
280
     0
102
RTVSPost2010PropOp35
 70
     1
102
RTVSPost2010Prop36
280
     0
102
RTVSPost2010PropOp36
 70
     1
102
RTVSPost2010Prop37
 90
       50
102
RTVSPost2010PropOp37
 70
     1
102
RTVSPost2010Prop38
140
0.0
102
RTVSPost2010PropOp38
 70
     1
102
RTVSPost2010Prop39
140
1.0
102
RTVSPost2010PropOp39
 70
     1
102
RTVSPost2010Prop40
 90
        0
102
RTVSPost2010PropOp40
 70
     1
102
RTVSPost2010Prop41ColorIndex
 90
       18
102
RTVSPost2010Prop41ColorRGB
 90
        0
102
RTVSPost2010PropOp41
 70
     1
102
RTVSPost2010Prop42
 90
       50
102
RTVSPost2010PropOp42
 70
     1
102
RTVSPost2010Prop43
 90
        3
102
RTVSPost2010PropOp43
 70
     1
102
RTVSPost2010Prop44ColorIndex
 90
        5
102
RTVSPost2010Prop44ColorRGB
 90
      255
102
RTVSPost2010PropOp44
 70
     1
102
RTVSPost2010Prop45
280
     0
102
RTVSPost2010PropOp45
 70
     1
102
RTVSPost2010Prop46
 90
       50
102
RTVSPost2010PropOp46
 70
     1
102
RTVSPost2010Prop47
 90
       50
102
RTVSPost2010PropOp47
 70
     1
102
RTVSPost2010Prop48
 90
       50
102
RTVSPost2010PropOp48
 70
     1
102
RTVSPost2010Prop49
280
     0
102
RTVSPost2010PropOp49
 70
     1
102
RTVSPost2010Prop50
 90
       50
102
RTVSPost2010PropOp50
 70
     1
102
RTVSPost2010Prop51ColorIndex
 90
      256
102
RTVSPost2010Prop51ColorRGB
 90
-16777216
102
RTVSPost2010PropOp51
 70
     0
102
RTVSPost2010Prop52
140
1.0
102
RTVSPost2010PropOp52
 70
     0
102
RTVSPost2010Prop53
 90
        2
102
RTVSPost2010PropOp53
 70
     1
102
RTVSPost2010Prop54
  1
strokes_ogs.tif
102
RTVSPost2010PropOp54
 70
     1
102
RTVSPost2010Prop55
280
     0
102
RTVSPost2010PropOp55
 70
     1
102
RTVSPost2010Prop56
140
1.0
102
RTVSPost2010PropOp56
 70
     1
102
RTVSPost2010Prop57
140
1.0
102
RTVSPost2010PropOp57
 70
     1
102
RTVSPropertyOp0
 70
     1
102
RTVSPropertyOp1
 70
     1
102
RTVSPropertyOp2
 70
     1
102
RTVSPropertyOp3
 70
     1
102
RTVSPropertyOp4
 70
     1
102
RTVSPropertyOp5
 70
     1
102
RTVSPropertyOp6
 70
     1
102
RTVSPropertyOp7
 70
     1
102
RTVSPropertyOp8
 70
     1
102
RTVSPropertyOp9
 70
     1
102
RTVSPropertyOp10
 70
     1
102
RTVSPropertyOp11
 70
     1
102
RTVSPropertyOp12
 70
     1
102
RTVSPropertyOp13
 70
     1
102
RTVSPropertyOp14
 70
     1
102
RTVSPropertyOp15
 70
     1
102
RTVSPropertyOp16
 70
     1
102
RTVSPropertyOp17
 70
     1
102
RTVSPropertyOp18
 70
     1
102
RTVSPropertyOp19
 70
     1
102
RTVSPropertyOp20
 70
     1
102
RTVSPropertyOp21
 70
     1
102
RTVSPropertyOp22
 70
     1
102
RTVSPropertyOp23
 70
     1
102
RTVSPropertyOp24
 70
     1
102
RTVSPropertyOp25
 70
     1
102
RTVSPropertyOp26
 70
     1
102
RTVSPropertyOp27
 70
     1
102
RTVSPropertyOp28
 70
     1
102
RTVSPropertyOp29
 70
     1
102
RTVSPropertyOp30
 70
     1
102
RTVSPropertyOp31
 70
     1
102
RTVSPropertyOp32
 70
     1
102
RTVSPropertyOp33
 70
     1
102
RTVSPropertyOp34
 70
     1
102
RTVSPropertyOp35
 70
     1
102
RTVSPropertyOp36
 70
     1
102
RTVSPropertyOp37
 70
     1
102
RTVSPropertyOp38
 70
     1
102
RTVSPropertyOp39
 70
     1
102
RTVSPropertyOp40
 70
     1
102
RTVSPropertyOp41
 70
     1
102
RTVSPropertyOp42
 70
     1
102
RTVSPropertyOp43
 70
     1
102
RTVSPropertyOp44
 70
     1
102
RTVSPropertyOp45
 70
     1
102
RTVSPropertyOp46
 70
     1
102
RTVSPropertyOp47
 70
     1
102
RTVSPropertyOp48
 70
     1
102
RTVSPropertyOp49
 70
     1
102
RTVSPropertyOp50
 70
     1
102
RTVSPropertyOp51
 70
     0
102
RTVSPropertyOp52
 70
     0
102
RTVSPropertyOp53
 70
     1
102
RTVSPropertyOp54
 70
     1
102
RTVSPropertyOp55
 70
     1
102
RTVSPropertyOp56
 70
     1
102
RTVSPropertyOp57
 70
     1
102
RTVSPropertyOp58
 70
     1
102
RTVSPropertyOp59
 70
     1
102
RTVSPropertyOp60
 70
     1
102
RTVSPropertyOp61
 70
     1
102
RTVSPropertyOp62
 70
     1
  0
XRECORD
  5
4C3
102
{ACAD_REACTORS
330
4C2
102
}
330
4C2
100
AcDbXrecord
280
     1
102
RTVSPost2010Prop28
280
     0
102
RTVSPost2010PropOp28
 70
     1
102
RTVSPost2010Prop29
280
     1
102
RTVSPost2010PropOp29
 70
     1
102
RTVSPost2010Prop30
280
     1
102
RTVSPost2010PropOp30
 70
     1
102
RTVSPost2010Prop31
280
     0
102
RTVSPost2010PropOp31
 70
     1
102
RTVSPost2010Prop32
280
     0
102
RTVSPost2010PropOp32
 70
     1
102
RTVSPost2010Prop33
280
     0
102
RTVSPost2010PropOp33
 70
     1
102
RTVSPost2010Prop34
280
     0
102
RTVSPost2010PropOp34
 70
     1
102
RTVSPost2010Prop35
280
     0
102
RTVSPost2010PropOp35
 70
     1
102
RTVSPost2010Prop36
280
     0
102
RTVSPost2010PropOp36
 70
     1
102
RTVSPost2010Prop37
 90
       50
102
RTVSPost2010PropOp37
 70
     1
102
RTVSPost2010Prop38
140
0.0
102
RTVSPost2010PropOp38
 70
     1
102
RTVSPost2010Prop39
140
1.0
102
RTVSPost2010PropOp39
 70
     1
102
RTVSPost2010Prop40
 90
        0
102
RTVSPost2010PropOp40
 70
     1
102
RTVSPost2010Prop41ColorIndex
 90
       18
102
RTVSPost2010Prop41ColorRGB
 90
        0
102
RTVSPost2010PropOp41
 70
     1
102
RTVSPost2010Prop42
 90
       50
102
RTVSPost2010PropOp42
 70
     1
102
RTVSPost2010Prop43
 90
        3
102
RTVSPost2010PropOp43
 70
     1
102
RTVSPost2010Prop44ColorIndex
 90
        5
102
RTVSPost2010Prop44ColorRGB
 90
      255
102
RTVSPost2010PropOp44
 70
     1
102
RTVSPost2010Prop45
280
     0
102
RTVSPost2010PropOp45
 70
     1
102
RTVSPost2010Prop46
 90
       50
102
RTVSPost2010PropOp46
 70
     1
102
RTVSPost2010Prop47
 90
       50
102
RTVSPost2010PropOp47
 70
     1
102
RTVSPost2010Prop48
 90
       50
102
RTVSPost2010PropOp48
 70
     1
102
RTVSPost2010Prop49
280
     0
102
RTVSPost2010PropOp49
 70
     1
102
RTVSPost2010Prop50
 90
       50
102
RTVSPost2010PropOp50
 70
     1
102
RTVSPost2010Prop51ColorIndex
 90
      256
102
RTVSPost2010Prop51ColorRGB
 90
-16777216
102
RTVSPost2010PropOp51
 70
     0
102
RTVSPost2010Prop52
140
1.0
102
RTVSPost2010PropOp52
 70
     0
102
RTVSPost2010Prop53
 90
        2
102
RTVSPost2010PropOp53
 70
     1
102
RTVSPost2010Prop54
  1
strokes_ogs.tif
102
RTVSPost2010PropOp54
 70
     1
102
RTVSPost2010Prop55
280
     0
102
RTVSPost2010PropOp55
 70
     1
102
RTVSPost2010Prop56
140
1.0
102
RTVSPost2010PropOp56
 70
     1
102
RTVSPost2010Prop57
140
1.0
102
RTVSPost2010PropOp57
 70
     1
102
RTVSPropertyOp0
 70
     1
102
RTVSPropertyOp1
 70
     1
102
RTVSPropertyOp2
 70
     1
102
RTVSPropertyOp3
 70
     1
102
RTVSPropertyOp4
 70
     1
102
RTVSPropertyOp5
 70
     1
102
RTVSPropertyOp6
 70
     1
102
RTVSPropertyOp7
 70
     1
102
RTVSPropertyOp8
 70
     1
102
RTVSPropertyOp9
 70
     1
102
RTVSPropertyOp10
 70
     1
102
RTVSPropertyOp11
 70
     1
102
RTVSPropertyOp12
 70
     1
102
RTVSPropertyOp13
 70
     1
102
RTVSPropertyOp14
 70
     1
102
RTVSPropertyOp15
 70
     1
102
RTVSPropertyOp16
 70
     1
102
RTVSPropertyOp17
 70
     1
102
RTVSPropertyOp18
 70
     1
102
RTVSPropertyOp19
 70
     1
102
RTVSPropertyOp20
 70
     1
102
RTVSPropertyOp21
 70
     1
102
RTVSPropertyOp22
 70
     1
102
RTVSPropertyOp23
 70
     1
102
RTVSPropertyOp24
 70
     1
102
RTVSPropertyOp25
 70
     1
102
RTVSPropertyOp26
 70
     1
102
RTVSPropertyOp27
 70
     1
102
RTVSPropertyOp28
 70
     1
102
RTVSPropertyOp29
 70
     1
102
RTVSPropertyOp30
 70
     1
102
RTVSPropertyOp31
 70
     1
102
RTVSPropertyOp32
 70
     1
102
RTVSPropertyOp33
 70
     1
102
RTVSPropertyOp34
 70
     1
102
RTVSPropertyOp35
 70
     1
102
RTVSPropertyOp36
 70
     1
102
RTVSPropertyOp37
 70
     1
102
RTVSPropertyOp38
 70
     1
102
RTVSPropertyOp39
 70
     1
102
RTVSPropertyOp40
 70
     1
102
RTVSPropertyOp41
 70
     1
102
RTVSPropertyOp42
 70
     1
102
RTVSPropertyOp43
 70
     1
102
RTVSPropertyOp44
 70
     1
102
RTVSPropertyOp45
 70
     1
102
RTVSPropertyOp46
 70
     1
102
RTVSPropertyOp47
 70
     1
102
RTVSPropertyOp48
 70
     1
102
RTVSPropertyOp49
 70
     1
102
RTVSPropertyOp50
 70
     1
102
RTVSPropertyOp51
 70
     0
102
RTVSPropertyOp52
 70
     0
102
RTVSPropertyOp53
 70
     1
102
RTVSPropertyOp54
 70
     1
102
RTVSPropertyOp55
 70
     1
102
RTVSPropertyOp56
 70
     1
102
RTVSPropertyOp57
 70
     1
102
RTVSPropertyOp58
 70
     1
102
RTVSPropertyOp59
 70
     1
102
RTVSPropertyOp60
 70
     1
102
RTVSPropertyOp61
 70
     1
102
RTVSPropertyOp62
 70
     1
  0
XRECORD
  5
4DB
102
{ACAD_REACTORS
330
4DA
102
}
330
4DA
100
AcDbXrecord
280
     1
102
RTVSPost2010Prop28
280
     0
102
RTVSPost2010PropOp28
 70
     1
102
RTVSPost2010Prop29
280
     1
102
RTVSPost2010PropOp29
 70
     1
102
RTVSPost2010Prop30
280
     1
102
RTVSPost2010PropOp30
 70
     1
102
RTVSPost2010Prop31
280
     0
102
RTVSPost2010PropOp31
 70
     1
102
RTVSPost2010Prop32
280
     0
102
RTVSPost2010PropOp32
 70
     1
102
RTVSPost2010Prop33
280
     0
102
RTVSPost2010PropOp33
 70
     1
102
RTVSPost2010Prop34
280
     0
102
RTVSPost2010PropOp34
 70
     1
102
RTVSPost2010Prop35
280
     0
102
RTVSPost2010PropOp35
 70
     1
102
RTVSPost2010Prop36
280
     0
102
RTVSPost2010PropOp36
 70
     1
102
RTVSPost2010Prop37
 90
       50
102
RTVSPost2010PropOp37
 70
     1
102
RTVSPost2010Prop38
140
0.0
102
RTVSPost2010PropOp38
 70
     1
102
RTVSPost2010Prop39
140
1.0
102
RTVSPost2010PropOp39
 70
     1
102
RTVSPost2010Prop40
 90
        0
102
RTVSPost2010PropOp40
 70
     1
102
RTVSPost2010Prop41ColorIndex
 90
       18
102
RTVSPost2010Prop41ColorRGB
 90
        0
102
RTVSPost2010PropOp41
 70
     1
102
RTVSPost2010Prop42
 90
       50
102
RTVSPost2010PropOp42
 70
     1
102
RTVSPost2010Prop43
 90
        3
102
RTVSPost2010PropOp43
 70
     1
102
RTVSPost2010Prop44ColorIndex
 90
        5
102
RTVSPost2010Prop44ColorRGB
 90
      255
102
RTVSPost2010PropOp44
 70
     1
102
RTVSPost2010Prop45
280
     0
102
RTVSPost2010PropOp45
 70
     1
102
RTVSPost2010Prop46
 90
       50
102
RTVSPost2010PropOp46
 70
     1
102
RTVSPost2010Prop47
 90
       50
102
RTVSPost2010PropOp47
 70
     1
102
RTVSPost2010Prop48
 90
       50
102
RTVSPost2010PropOp48
 70
     1
102
RTVSPost2010Prop49
280
     0
102
RTVSPost2010PropOp49
 70
     1
102
RTVSPost2010Prop50
 90
       50
102
RTVSPost2010PropOp50
 70
     1
102
RTVSPost2010Prop51ColorIndex
 90
      256
102
RTVSPost2010Prop51ColorRGB
 90
-16777216
102
RTVSPost2010PropOp51
 70
     0
102
RTVSPost2010Prop52
140
1.0
102
RTVSPost2010PropOp52
 70
     0
102
RTVSPost2010Prop53
 90
        2
102
RTVSPost2010PropOp53
 70
     1
102
RTVSPost2010Prop54
  1
strokes_ogs.tif
102
RTVSPost2010PropOp54
 70
     1
102
RTVSPost2010Prop55
280
     0
102
RTVSPost2010PropOp55
 70
     1
102
RTVSPost2010Prop56
140
1.0
102
RTVSPost2010PropOp56
 70
     1
102
RTVSPost2010Prop57
140
1.0
102
RTVSPost2010PropOp57
 70
     1
102
RTVSPropertyOp0
 70
     1
102
RTVSPropertyOp1
 70
     1
102
RTVSPropertyOp2
 70
     1
102
RTVSPropertyOp3
 70
     1
102
RTVSPropertyOp4
 70
     1
102
RTVSPropertyOp5
 70
     1
102
RTVSPropertyOp6
 70
     1
102
RTVSPropertyOp7
 70
     1
102
RTVSPropertyOp8
 70
     1
102
RTVSPropertyOp9
 70
     1
102
RTVSPropertyOp10
 70
     1
102
RTVSPropertyOp11
 70
     1
102
RTVSPropertyOp12
 70
     1
102
RTVSPropertyOp13
 70
     1
102
RTVSPropertyOp14
 70
     1
102
RTVSPropertyOp15
 70
     1
102
RTVSPropertyOp16
 70
     1
102
RTVSPropertyOp17
 70
     1
102
RTVSPropertyOp18
 70
     1
102
RTVSPropertyOp19
 70
     1
102
RTVSPropertyOp20
 70
     1
102
RTVSPropertyOp21
 70
     1
102
RTVSPropertyOp22
 70
     1
102
RTVSPropertyOp23
 70
     1
102
RTVSPropertyOp24
 70
     1
102
RTVSPropertyOp25
 70
     1
102
RTVSPropertyOp26
 70
     1
102
RTVSPropertyOp27
 70
     1
102
RTVSPropertyOp28
 70
     1
102
RTVSPropertyOp29
 70
     1
102
RTVSPropertyOp30
 70
     1
102
RTVSPropertyOp31
 70
     1
102
RTVSPropertyOp32
 70
     1
102
RTVSPropertyOp33
 70
     1
102
RTVSPropertyOp34
 70
     1
102
RTVSPropertyOp35
 70
     1
102
RTVSPropertyOp36
 70
     1
102
RTVSPropertyOp37
 70
     1
102
RTVSPropertyOp38
 70
     1
102
RTVSPropertyOp39
 70
     1
102
RTVSPropertyOp40
 70
     1
102
RTVSPropertyOp41
 70
     1
102
RTVSPropertyOp42
 70
     1
102
RTVSPropertyOp43
 70
     1
102
RTVSPropertyOp44
 70
     1
102
RTVSPropertyOp45
 70
     1
102
RTVSPropertyOp46
 70
     1
102
RTVSPropertyOp47
 70
     1
102
RTVSPropertyOp48
 70
     1
102
RTVSPropertyOp49
 70
     1
102
RTVSPropertyOp50
 70
     1
102
RTVSPropertyOp51
 70
     0
102
RTVSPropertyOp52
 70
     0
102
RTVSPropertyOp53
 70
     1
102
RTVSPropertyOp54
 70
     1
102
RTVSPropertyOp55
 70
     1
102
RTVSPropertyOp56
 70
     1
102
RTVSPropertyOp57
 70
     1
102
RTVSPropertyOp58
 70
     1
102
RTVSPropertyOp59
 70
     1
102
RTVSPropertyOp60
 70
     1
102
RTVSPropertyOp61
 70
     1
102
RTVSPropertyOp62
 70
     1
  0
ENDSEC
  0
EOF
